» » »

Heideroosjes, Lekker Belangrijk Tabs (ver.2)

Artists:  A B C D E F G H I J K L M N O P Q R S T U V W X Y Z # 

Lekker Belangrijk Tabs (ver.2)

Heideroosjes Tabs
 Rating:
4/5 (4 votes)
Lekker Belangrijk lessons Tabs too difficult? Try these video lessons and learn fast
1
                Track: Lekker Belangrijk

Tuning: Standard (EADGBe)
X= MUTE
/= SLIDE UP
>= PLACTRUM SLIDE
#= DON'T PLAY STRING

INTRO/VERSE: PLAY THIS 8 TIMES
e|--------------|
B|--------------|
G|-66----6-66---|
D|-66-44-6-66---|
A|-44-44-4-44---|
E|----22--------|

THEN MUTE
e|-----------------|
B|-----------------|
G|-X-X-X-X-X-X-X-X-|
D|-X-X-X-X-X-X-X-x-|
A|-X-X-X-X-X-X-X-X-|
E|-----------------|

CHORUS:
e|------------------------------------------------------------|
B|------------------------------------------------------------|
G|------------------------------------------------------------|
D|-44444444-88888888-6666-4444-6666-4444-------------88888888-|
A|-44444444-88888888-6666-4444-6666-4444-------------88888888-|
E|-22222222-66666666-4444-2222-4444-2222-2-2-2-2-2-2-66666666-|

INTERLUDE:
e|-13--13--13--14-16--16--16--14-13/-|
B|---14--14--14-----14--14--14-------|
G|-----------------------------------|
D|-----------------------------------|
A|-----------------------------------|
E|-----------------------------------|

VERSE: PLAY THIS 4 TIMES
e|--------------|
B|--------------|
G|-66----6-66---|
D|-66-44-6-66---|
A|-44-44-4-44---|
E|----22--------|

PRE-CHORUS:
e|--------------------|
B|--------------------|
G|--------------------|
D|-44444444-88888888/-|
A|-44444444-88888888/-|
E|-22222222-66666666/-|

VERSE: PLAY THIS 2 TIMES (PLAY MUTE AFTER LAST TIME)
e|--------------|------|
B|--------------|------|
G|-66----6-66---|XX-XX-|
D|-66-44-6-66---|XX-XX-|
A|-44-44-4-44---|XX-XX-|
E|----22--------|------|

CHORUS:
e|------------------------------------------------------------|
B|------------------------------------------------------------|
G|------------------------------------------------------------|
D|-44444444-88888888-6666-4444-6666-4444-------------88888888-|
A|-44444444-88888888-6666-4444-6666-4444-------------88888888-|
E|-22222222-66666666-4444-2222-4444-2222-2-2-2-2-2-2-66666666-|

BRIDGE part 1:
e|-13--13--13--14-16--16--16--14-|
B|---14--14--14-----14--14--14---|
G|-------------------------------|
D|-------------------------------|PLAY THIS 3 TIMES
A|-------------------------------|
E|-------------------------------|

THEN
e|-13--13--14--14---13/-|
B|---14--14--14--14-14/-|
G|----------------------|
D|----------------------|
A|----------------------|
E|----------------------|

BRIDGE part 2:
e|---------------------------|
B|---------------------------|
G|-6~--------6~--------------|
D|-6~---6~---6~---6~---------|
A|-4~---6~---4~---6~--->>>>>-|
E|------4~--------4~--->>>>>-|
                 |Plactrum Slide|

END CHORUS part 1:
e|--------------------------------------|
B|--------------------------------------|
G|--------------------------------------|
D|-44444444-88888888-6666-4444-66666666-|
A|-44444444-88888888-6666-4444-66666666-|
E|-22222222-66666666-4444-2222-44444444-|

END CHORUS part 2:
e|---------------------------------------------------------|
B|---------------------------------------------------------|
G|-------------------66666666XXX66666666-------------------|
D|-44444444-88888888-66666666XXX66666666-44444444-88888888-|
A|-44444444-88888888-44444444XXX44444444-44444444-88888888-|
E|-22222222-66666666---------------------22222222-66666666-|

OUTRO part 1:
e|------------------------------|
B|------------------------------|
G|-4---9-11---9-4---9-11---9-4--|
D|-#---#--#---#-#---#--#---#-4--|
A|-6--11-13--11-6--11-13--11-6--|
E|------------------------------|


OUTRO part 2:
e|-13--13--13--14-16--16--16--14-|
B|---14--14--14-----14--14--14---|
G|-------------------------------|
D|-------------------------------|
A|-------------------------------|
E|-------------------------------|

e|-13--13--13--14-16--16--16--14-13~~-|
B|---14--14--14-----14--14--14--------|
G|------------------------------------|
D|------------------------------------|
A|------------------------------------|
E|------------------------------------|

Here Is An Add-on at the end of OUTRO part 2.
After the last 13 when it rings. You can put the following tab in it.
Concider it with your band that you all finish at the same time.
it gives an finishing touch ;)

e|-13~~-|--13/-|
B|------|--14/-|
G|------|------|
D|------|------|
A|------|------|
E|------|------|

I'm sure this is OK, just listen to the track
and you'll be able to work it out.
Enjoy!!!!! 

or just leave an comment.  XD
            
Submit corrections

comments powered by Disqus
↑ Back to top | Heideroosjes Tabs for Lekker Belangrijk. Lyrics for acoustic guitar and electric guitar. 1 Tablatures and chords are parodies/interpretations of the original songs. You may use it for private study, scholarship, research or language learning purposes only