» » »

Lekker Belangrijk Tabs (ver.1)

Artists:  A B C D E F G H I J K L M N O P Q R S T U V W X Y Z # 

Lekker Belangrijk Tabs (ver.1)

Heideroosjes
Rating:
5/5 (2 votes)

Hard to play? Try these video lessons and learn fast.
                --------------------------------------------------------------
--------------------------------------------------------------


Intro/verses

e|-----------------------------------------------------------|
B|-----------------------------------------------------------|
G|-6--6-6------6-6-6-----------------------------------------|
D|-6--6-6-4--4-6-6-6-----------------------------------------|
A|-4--4-4-4--4-4-4-4-----------------------------------------|
E|--------2--2-----------------------------------------------|

Chorus

e|-----------------------------------------------------------|
B|-----------------------------------------------------------|
G|-6-6-6-------------------------------------6--6-6-6--------|
D|-6-6-6-4--4-4-4-4-4-4-4-4-8--8-8-8-8-8-8-8-6--6-6-6-4--4-4-|
A|-4-4-4-4--4-4-4-4-4-4-4-4-8--8-8-8-8-8-8-8-4--4-4-4-4--4-4-|
E|-------2--2-2-2-2-2-2-2-2-6--6-6-6-6-6-6-6----------2--2-2-|

e|-----------------------------------------------------------|
B|-----------------------------------------------------------|
G|---6--6-6-6------------------------------------------------|
D|-4-6--6-6-6-4--4-4-4--8-8-8-8-8-8-8-8----------------------|
A|-4-4--4-4-4-4--4-4-4--8-8-8-8-8-8-8-8----------------------|
E|-2----------2--2-2-2--6-6-6-6-6-6-6-6----------------------|

Solo

e|-13----13----13----14----16----16----16----14----13\1------|
B|----14----14----14----14----14----14----14----14-14\2------|
G|-----------------------------------------------------------|
D|-----------------------------------------------------------|
A|-----------------------------------------------------------|
E|-----------------------------------------------------------|


| \  slide down
==============================================================
            
Hard to play? Try these video lessons and learn fast. | Correct




comments powered by Disqus
↑ Back to top | Tablatures and chords are parodies/interpretations of the original songs. You may use it for private study, scholarship, research or language learning purposes only