» » »

Heideroosjes, Last Call To Humanity Bass tabs (ver.1)

Artists:  A B C D E F G H I J K L M N O P Q R S T U V W X Y Z # 

Last Call To Humanity Bass tabs (ver.1)

Heideroosjes Tabs
 Rating:
4/5 (4 votes)
Last Call To Humanity lessons Tabs too difficult? Try these video lessons and learn fast
1
                easy but cool song.

INTRO:
G--------------------------------------------------------------|
D-------------2222-11-------------2222-11--------------2222-11-|
A-----222-----------------222-----------------222--------------|
E-444-----000---------444-----000---------444-----000----------|

variation:
G--------------------------------------------------------------|
D----------------------2222-11---------------------------------|
A--------222-22------------------------------------------------|
E-444-44--------000-00-----------------------------------------|

Intro 2:
G--------------------------------------------------------------|
D----------------------------22222222--------------------------|
A----------22222222--------------------------------------------|(X2)
E-44444444----------00000000-----------------------------------|

Verse:
G--------------------------------------------------------------|
D--------------------------------------------------------------|
A----------22222222--------------------------------------------|(X4)
E-44444444----------0000000000000000---------------------------|

Pre-chorus:
G--------------------------------------------------------------|
D-------------2222-11------------------------------------------|
A-----222------------------------------------------------------|
E-444-----000--------------------------------------------------|

Chorus:

G--------------------------------------------------------------|
D----------------------------22222222--------------------------|
A----------22222222--------------------------------------------|(X3)
E-44444444----------00000000-----------------------------------|

Verse(X4)
Pre-chorus(X1)
Chorus(X3)

Bridge:
G--------------------------------------------------------------|
D--------------------------------------------------------------|
A-11111111-22222222-11111111-22222222-11111111-22222222--------|
E--------------------------------------------------------------|

G--------------------------------------------------------------|
D--------------------------------------------------------------|
A----------11111111--------------------------------------------|
E-44444444----------0000-2222----------------------------------|

Chorus (X4)

End on:

G---------|
D---------|
A---------|
E-444/----|


thanks! \o/
            
Submit corrections

comments powered by Disqus
↑ Back to top | Heideroosjes Bass for Last Call To Humanity. Lyrics for acoustic guitar and electric guitar. 1 Tablatures and chords are parodies/interpretations of the original songs. You may use it for private study, scholarship, research or language learning purposes only