» » »

Heideroosjes, Dood Zijn Bass tabs (ver.1)

Artists:  A B C D E F G H I J K L M N O P Q R S T U V W X Y Z # 

Dood Zijn Bass tabs (ver.1)

Heideroosjes Tabs
 Rating:
4/5 (5 votes)
Dood Zijn lessons Tabs too difficult? Try these video lessons and learn fast
1
                 = slide down to note that follows

Fig 1

      D       A
|--------------------------------------------|
|--------------------------------------------|
|-----5---\---00-----------------------------|       6 x
|--------------------------------------------|

Fig 2

      D   C   G      D  D  C  B  A  G      D
|--------------------------------------------|
|--------------------------------------------|
|-----0---3----------5--5--3--2--0---------5-|       1 x
|-------------3---------------------3--------|

Fig 3

      D               C
|--------------------------------------------|
|--------------------------------------------|
|-----555555555555555-3333333333333----------|       4 x
|--------------------------------------------|

Fig 4

      B                  D
|--------------------------------------------|
|--------------------------------------------|
|-----222222222222222----5----5--------------|       4 x
|--------------------------------------------|


Repeat above and than end with :


Fig 5 

      D     A
|--------------------------------------------|
|--------------------------------------------|
|-----5--/--00-------------------------------|       1 x
|--------------------------------------------|
            
Submit corrections

comments powered by Disqus
↑ Back to top | Heideroosjes Bass for Dood Zijn. Lyrics for acoustic guitar and electric guitar. 1 Tablatures and chords are parodies/interpretations of the original songs. You may use it for private study, scholarship, research or language learning purposes only