» » »

Heideroosjes, Cash Is King Tabs (ver.1)

Artists:  A B C D E F G H I J K L M N O P Q R S T U V W X Y Z # 

Cash Is King Tabs (ver.1)

Heideroosjes Tabs
 Rating:
4/5 (4 votes)
Cash Is King lessons Tabs too difficult? Try these video lessons and learn fast
1
                -------------------------------------------------------------------------------
-------------------------------------------------------------------------------

Tuning:

Off of the new album 'Chapter Eight the Golden State'

Intro:
e|--------------------------------------|
B|--------------------------------------|
G|--------------------------------------|
D|--------------------------------------|
A|-5555555555555/33---55555555-1-1------|
E|---------------------------------1-1--|

Verse 1: repeat 4x (I tried to  describe the rhythm a bit)
e|--------------------------|
B|--------------------------|
G|--------------------------|
D|-----------5--------------|
A|-5---5-5-3-----1-1--------|
E|-------------------1-1----|

repeat intro 1x

verse 2: repeat 2x
e|--------------------------------------------------|
B|--------------------------------------------------|
G|--------------------------------------------------|
D|---------------------------------5----------------|
A|-5---5-5-3-1-----1-----5---5-5-3-----1-1----------|
E|-------------1-3---3---------------------1-1------|

chorus: repeat 2x
these are the two chords, strum the G5 24 times, the A#5 10 times
e|---------|
B|---------|
G|---------|
D|-5--8----|
A|-5--8----|
E|-3--6----|

post-chorus:
e|------------------------------|
B|------------------------------|
G|------------------------------|
D|------------------------------|
A|-5555555555555/33---55555555--|
E|------------------------------|

repeat verse 1 4x
repeat intro 2x
repeat verse 2 2x
repeat chorus 2x

bridge: repeat 4x
e|-------------------------------------|
B|-------------------------------------|
G|-7-77777-10-1010101010---------------|
D|-7-77777-10-1010101010-8-8888888888--|
A|-5-55555--8--8-8-8-8-8-8-8888888888--|
E|-----------------------6-6666666666--|

end with:
e|---------|
B|---------|
G|--7------|
D|--7------|
A|--5------|
E|---------|

during the 'greed is not a sin'-part Frank plays something like this:
repeat as necessary
e|-----------|
B|--6---5----|
G|--7---5----|
D|--7---5----|
A|-----------|
E|-----------|

and near the end something like this:
e|--------------------------|
B|----6--------5------------|
G|------7--------5----------|
D|--------------------------|
A|--5-------3---------------|
E|--------------------------|
it's difficult to hear what he plays exactly, but this sounds good

repeat the chorus and end with:
e|---------|
B|---------|
G|---------|
D|--5\-----|
A|--5\-----|
E|--3\-----|
that's it!

| /  slide up
| \  slide down
| h  hammer-on
| p  pull-off
| ~  vibrato
| +  harmonic
| x  Mute note
===============================================================================
            
Submit corrections

comments powered by Disqus
↑ Back to top | Heideroosjes Tabs for Cash Is King. Lyrics for acoustic guitar and electric guitar. 1 Tablatures and chords are parodies/interpretations of the original songs. You may use it for private study, scholarship, research or language learning purposes only