>
 >
Streamlined Man

Streamlined Man Guitar Tabs

Hedges Michael - Streamlined Man chords, tabs, tablatures, lyrics

Guitar lessons | Add/correct | Request | Top 50 tabs Artists:  A B C D E F G H I J K L M N O P Q R S T U V W X Y Z 0-9

Streamlined Man Guitar Tabs – Hedges Michael

CD, Sheet music, Poster

Do you like Streamlined Man? Share with your friends now
TabsTabs v2
Hello all!
I joined this list about two months ago, aand have been avidly waiting for
each post to come through (i cry when its empty)
Anyhowz, as you might guess, i'm a bit of a hedge fan
I could go on about how fantastic his music is, how inspiring, uplifting,
refreshing his music is....
But i guess we all know that and thats why were here.

Anyway i have some tab to post. But beware!
Firstly, i have never done tab on a screen before.
Secondly, all of the tune isnt there, basically because i havnt got round
	to it, and it leaves you with a bit to write out.
Thirdly, my tuning isnt the same as the one listed in the FAQ which is
	most likely correct, but hell, i'll fix it one day.
Fourthly, Ok so its not brilliant but i tried, but YOu might be able to do
	better, and if you can ....  let me know!
Fifthly.. now what else is there?


RETUNING:

e    stays   e
B  down to   A
G  down to   E
D  down to   A
A    stays   A
E  up to     G


ok, intro:                     ps-ss means slide
				   h means hammer on
				   x means harmonic
			       Zoink means work out you own strumming pattern

(Zoink-all the way thru)
----------0---------------0--|----------0-----------------|-------------------|
----------0---------------0--|----------0-----------------|-------------------|
--10ss12-----12---10-10------|--10ss12-----12---12--10----|-------------------|this bit repeats
--10ss12-----12---10--9------|--10ss12-----12---10---9----|--again------------|
-----------------------------|----------------------------|-------------------|
-----------------------------|----------------------------|-------------------|


-----------------------------0---------|
-----------------------------9-----12x-|   many of you will by now have
--8---8---5-----3--3--------10-----12x-|   noticed my notation skills
--8---7---5-----3--3--5--5--10---------|   leave a lot to be desired,but hey!
----------------------5--5---0---------|   i can understand `em!
----------------------0--0---0---------|


------------------------------------|
-----------0-----0---------0-----0--|  singing starts while playing this
------------------------------------|  part
------------------------------------|
------------------------------------|
---ss9h11-----2----ss9h11-----2-----|


---2-----5----10--------------------------------------10--|
---0-----0-----0--------------------------9-----12-----0--|
---2-----5----10----: or if you      : ---0------0----10--|
---0-----0-----0----: dont like this : ---0------0-----0--|
---2-----5----10----: you could try  : ---0------0----10--|
---0-----0-----0--------------------------7-----11--------|


anyway thats all for now, hope you can make sense of it.
If you can make sense of it, then i hope you like it.
If you cant make sense of it, or you dont like it, then here is a pretty
picture of a worm i found yesterday. See y'all!

Xtian


                           ________oo__





Comments


Popular Hedges Michael tabs & chords
Funky Avocado Bass Tabs
Bensusan 1 Tabs
Breakfast Field 1 Tabs
Eleven Small Roaches Tabs
Ritual Dance 1 Tabs
The Jealous Tunnel Tabs
The Magic Farmer 1 Tabs
Two Days Old 1 Tabs
Various Tunings Tabs
Watchtower Tabs


Song lyrics



↑ Back to top | Tablatures and chords are parodies/interpretations of the original songs. You may use it for private study, scholarship, research or language learning purposes only
© 2014 AZChords.com Contact us | Privacy policy | DMCA | Add/correct tabs | Request tabs | Top 50 tabs