» » »

Sunny Bass tabs (ver.1)

Artists:  A B C D E F G H I J K L M N O P Q R S T U V W X Y Z # 

Sunny Bass tabs (ver.1)

Hebb Bobby
Rating:
0/5 (0 votes)

Tabs too difficult? Try these video lessons and learn fast.
                ----------------------------------------------

best viewed using courier new font

Bobby Hebb - "Sunny" - Bass Tab

Verse 1:
|-------------|-------------|-------------|------------|
|*------------|-------------|-------------|-----------*|
|*------------|-------------|-3---3-3---3-|-------1---*|(x2)
|-0---0-0---0-|-3---3-3---3-|-------------|-1---1------|
  1 2 & 3 4 &   1 2 & 3 4 &   1 2 & 3 4 &   1 2 & 3 4

|-------------|-------------|-------------|-------------|
|-------------|-------------|-------------|-------------|
|-------------|-------------|-3---3-3---3-|-------------|
|-0---0-0---0-|-3---3-3---3-|-------------|-1---1-1---1-|
  1 2 & 3 4 &   1 2 & 3 4 &   1 2 & 3 4 &   1 2 & 3 4 & 

|-------------|-------------|-------------|-----------|
|-------------|-------------|-------------|-----------|
|-------------|-1---1-1---1-|-------------|-----------|
|-1---1-1---1-|-------------|-0---0-0---0-|-0---0-0---|
  1 2 & 3 4 &   1 2 & 3 4 &   1 2 & 3 4 &   1 2 & 3 4

Verse 2:
|-------------|-------------|-------------|------------|
|*------------|-------------|-------------|-----------*|
|*------------|-------------|-3---3-3---3-|-------1---*|(x2)
|-0---0-0---0-|-3---3-3---3-|-------------|-1---1------|
  1 2 & 3 4 &   1 2 & 3 4 &   1 2 & 3 4 &   1 2 & 3 4

|-------------|-------------|-------------|-------------|
|-------------|-------------|-------------|-------------|
|-------------|-------------|-3---3-3---3-|-------------|
|-0---0-0---0-|-3---3-3---3-|-------------|-1---1-1---1-|
  1 2 & 3 4 &   1 2 & 3 4 &   1 2 & 3 4 &   1 2 & 3 4 & 

|-------------|-------------|-------------|-----------------|
|-------------|-------------|-------------|-----------------|
|-------------|-1---1-1---1-|-------------|---3-3-3-3-3-3-3-|
|-1---1-1---1-|-------------|-0---0-0---0-|-0---------------|
  1 2 & 3 4 &   1 2 & 3 4 &   1 2 & 3 4 &   1 & 2 & 3 & 4 &

Verse 3:
|-------------|-------------|-------------|------------|
|*------------|-------------|-------------|-----------*|
|*------------|-0---0-0---0-|-5---5-5---5-|-------3---*|(x2)
|-1---1-1---1-|-------------|-------------|-3---3------|
  1 2 & 3 4 &   1 2 & 3 4 &   1 2 & 3 4 &   1 2 & 3 4

|-------------|-------------|-------------|-------------|
|-------------|-------------|-------------|-------------|
|-------------|-0---0-0---0-|-5---5-5---5-|-------------|
|-1---1-1---1-|-------------|-------------|-3---3-3---3-|
  1 2 & 3 4 &   1 2 & 3 4 &   1 2 & 3 4 &   1 2 & 3 4 &

|-------------|-------------|-------------|-----------------|
|-------------|-------------|-------------|-----------------|
|-------------|-3---3-3---3-|-------------|---4-4-4-4-4-4-4-|
|-3---3-3---3-|-------------|-1---1-1---1-|-1---------------|
  1 2 & 3 4 &   1 2 & 3 4 &   1 2 & 3 4 &   1 & 2 & 3 & 4 &





Verse 4:
|-------------|-------------|-------------|------------|
|*------------|-------------|-------------|-----------*|
|*------------|-0---0-0---0-|-6---6-6---6-|-------4---*|(x2)
|-2---2-2---2-|-------------|-------------|-4---4------|
  1 2 & 3 4 &   1 2 & 3 4 &   1 2 & 3 4 &   1 2 & 3 4

|-------------|-------------|-------------|-------------|
|-------------|-------------|-------------|-------------|
|-------------|-0---0-0---0-|-6---6-6---6-|-------------|
|-2---2-2---2-|-------------|-------------|-4---4-4---4-|
  1 2 & 3 4 &   1 2 & 3 4 &   1 2 & 3 4 &   1 2 & 3 4 &

|-------------|-------------|-------------|-----------------|
|-------------|-------------|-------------|---0-0-0-0-0-0-0-|
|-------------|-4---4-4---4-|-------------|-----------------|
|-4---4-4---4-|-------------|-2---2-2---2-|-2---------------|
  1 2 & 3 4 &   1 2 & 3 4 &   1 2 & 3 4 &   1 & 2 & 3 & 4 &

Verse 5:
|-------------|-------------|-------------|------------|
|*------------|-------------|-2---2-2---2-|-----------*|
|*------------|-2---2-2---2-|-------------|-0---0-5---*|(x2)
|-3---3-3---3-|-------------|-------------|------------|
  1 2 & 3 4 &   1 2 & 3 4 &   1 2 & 3 4 &   1 2 & 3 4

|-------------|-------------|-------------|-------------|
|-------------|-------------|-2---2-2---2-|-------------|
|-------------|-2---2-2---2-|-------------|-0---0-0---0-|
|-3---3-3---3-|-------------|-------------|-------------|
  1 2 & 3 4 &   1 2 & 3 4 &   1 2 & 3 4 &   1 2 & 3 4 &

|-------------|---------|
|-2---2-2---2-|-2-R-R-R-|
|-------------|---------|
|-------------|---------|
  1 2 & 3 4 &   1 2 3 4

|--------------|------------|
|*-------------|-----------*|
|*-------------|-3---3-5---*|(x3)
|--3---3-3---3-|------------|
   1 2 & 3 4 &   1 2 & 3 4
            
Tabs too difficult? Try these video lessons and learn fast.




comments powered by Disqus
↑ Back to top | Tablatures and chords are parodies/interpretations of the original songs. You may use it for private study, scholarship, research or language learning purposes only