» » »

Heavens To Betsy, My Secret Tabs (ver.1)

Artists:  A B C D E F G H I J K L M N O P Q R S T U V W X Y Z # 

My Secret Tabs (ver.1)

Heavens To Betsy Tabs
 Rating:
4/5 (4 votes)
My Secret lessons Tabs too difficult? Try these video lessons and learn fast
                #------------------------------------------------------------------------------##


 My Secret by Heavens to Betsy

(off their split 7" w/ Bratmobile on K Records)


Riff 1
|---------------------------------------------------------------|
|---------------------------------------------------------------|
|------------------------------------------------5-5-5-5-5-5-5--|
|--5-5-5-5--8-----5-5-5-5--8------5-5-5-5--8-----5-5-5-5-5-5-5--|
|--5-5-5-5--8-----5-5-5-5--8------5-5-5-5--8-----3-3-3-3-3-3-3--|
|--3-3-3-3--6-----3-3-3-3--6------3-3-3-3--6-----x-x-x-x-x-x-x--|
             My             Secret          is coming out


Riff 2
|---------------------------------------------------------------|
|---------------------------------------------------------------|
|--5-5-5-5--3-3-3-3-3-3-3-3-3---5-5-5-5--3-3-3-3-3-3-3-3-3------|
|--5-5-5-5--3-3-3-3-3-3-3-3-3---5-5-5-5--3-3-3-3-3-3-3-3-3------|
|--3-3-3-3--1-1-1-1-1-1-1-1-1---3-3-3-3--1-1-1-1-1-1-1-1-1------|
|---------------------------------------------------------------|
     i am getting through this,   i am   living through this


Lyrics 

w/ riff 1

  My
  Secret
  is coming out

  And each
  Word
  I live it out

  What you
  Did
  Caused me some pain

  And I
  Won't
  Go through it again

w/ riff 2

    ??????????????????
    It happened to my best friend
    I'll tell again and again
    What you did to us when we were only ten

w/ riff 1

  My
  Secret
  Is really true

  This song
  These words
  Are a threat to you

  A knife
  In  you
  i'd stick it in

  Listen
  Listen
  I'm about revenge

w/ riff 2

    I am getting through this
    I am living through this
    I'll tell again and again
    I'll tell again and again

w/ riff 1

   My
   Secret
   Is coming out

   And each
   Word
   I live it out

   My truth
   My truth
   Will get you the end

   And my
   Secret
   Is I want you dead
   I want you dead
   I want you dead
   I want you dead


 and thats that, kids, more to come, i promise:)



ryan:)
            
Submit corrections

comments powered by Disqus
↑ Back to top | Heavens To Betsy Tabs for My Secret. Lyrics for acoustic guitar and electric guitar. Tablatures and chords are parodies/interpretations of the original songs. You may use it for private study, scholarship, research or language learning purposes only