» » »

Heavens To Betsy, My Red Self Tabs (ver.1)

Artists:  A B C D E F G H I J K L M N O P Q R S T U V W X Y Z # 

My Red Self Tabs (ver.1)

Heavens To Betsy Tabs
 Rating:
4/5 (4 votes)
My Red Self lessons Tabs too difficult? Try these video lessons and learn fast
1
                -------------------------------------------------------------------------------
                             My Red Self by: Heavens To Betsy
-------------------------------------------------------------------------------

This is my first tab, so it's probably not very good...
This is a pretty easy song to play, the main focus is on the vocals- the guitar just adds to the vibe

Tuning: I play it in standard, but I've heard Corin likes to tune her guitar a bit low.

Main Riff (Intro, Verses, Outro)  - repeats throughout
e|--------------------------------------------------------------------------|
B|--------------------------------------------------------------------------|
G|--------------------------------------------------------------------------|
D|--------------------------------------------------------------------------|
A|---------------------7-7-7-7-7-7-7-7---------------------5-5-5-5-5-5-5-5--|
E|-5-5-5-5-5-5-5-5---------------------3-3-3-3-3-3-3-3----------------------|

Chorus ("Never wear white...")- repeats throughout
e|-------------------------------------------------------------------------------------|
B|-------------------------------------------------------------------------------------|
G|-------------------------------------------------------------------------------------|
D|-----------------------------------------7-7-7-7-7-7-7-7-----------------------------|
A|---------------------7-7-7-7-7-7-7-7-------------------------------------------------|
E|-7-7-7-7-7-7-7-7---------------------------------------------------------------------|

"So you make me hide..." part- repeats throughout. This part is played a bit faster and 
more aggression.
e|-------------------------------------------------------------------------------------|
B|-------------------------------------------------------------------------------------|
G|-------------------------------------------------------------------------------------|
D|------------------------------------------5-5-5-5-5-5-5-5----------------------------|
A|---------------------5-5-5-5-5-5-5-5-------------------------------------------------|
E|-5-5-5-5-5-5-5-5---------------------------------------------------------------------|
            
Submit corrections

comments powered by Disqus
↑ Back to top | Heavens To Betsy Tabs for My Red Self. Lyrics for acoustic guitar and electric guitar. 1 Tablatures and chords are parodies/interpretations of the original songs. You may use it for private study, scholarship, research or language learning purposes only