» » »

Heavens To Betsy, Calculated Tabs (ver.1)

Artists:  A B C D E F G H I J K L M N O P Q R S T U V W X Y Z # 

Calculated Tabs (ver.1)

Heavens To Betsy Tabs
 Rating:
4/5 (4 votes)
Calculated lessons Tabs too difficult? Try these video lessons and learn fast
1
                e |-----------------------------------|
B |-----------------------------------|
G |-----------------------------------|     Riff 1
D |-----------------------------------|
A |-----------------------------------|
E |-3-3-3-2-2-2-2-0-0-0-2-2-2-2-------|

Play this during the first verse^


e |------------------------------------------------------------------|
B |------------------------------------------------------------------|
G |------------------------------------------------------------------|
D |--------------------------------------------------2-2-2-2-2-2-2-2-| R2
A |--------------------------------------------------2-2-2-2-2-2-2-2-|
E |-2-2-2-3-3-3-3-0-0-0-0-0-0-0-0—(X2)-2-2-2-3-3-3-3-0-0-0-0-0-0-0-0-|

Play this During the “Its calculated” part ^ “I’m Taking Everything”

e |-------------------------------|
B |-------------------------------|
G |-------------------------------|
D |-4-4-4-5-5-5-5-2-2-2-2-2-2-2-2-|   R3
A |-4-4-4-5-5-5-5-2-2-2-2-2-2-2-2-|
E |-2-2-2-3-3-3-3-0-0-0-0-0-0-0-0-|

Play this ^ Once after “I’m taking Everything”

e |-------------------------------|
B |-------------------------------|
G |-------------------------------|
D |-5-5-5-4-4-4-4-2-2-2-4-4-4-4---|
A |-5-5-5-4-4-4-4-2-2-2-4-4-4-4---|    R4
E |-3-3-3-2-2-2-2-0-0-0-2-2-2-2---|X4

Play this ^ during the next verse

Then play Riff 2 again, followed by R3


e |------------------------------------|
B |------------------------------------|
G |------------------------------------|
D |------------------------------------| R5
A |------------------------------------|
E |-2-2-2-3-3-3-3-0-0-0-0-0-0-0-0—-----| X4

Finish on That

So, actually this is supposed to be played on a bass, but this is 4 guitar, cos I don’t 
bass and cant be bothered figuring it out. It sounds gr8 anyway, its just a bit higher 
            
Submit corrections

comments powered by Disqus
↑ Back to top | Heavens To Betsy Tabs for Calculated. Lyrics for acoustic guitar and electric guitar. 1 Tablatures and chords are parodies/interpretations of the original songs. You may use it for private study, scholarship, research or language learning purposes only