» » »

Axemen Tabs (ver.1)

Artists:  A B C D E F G H I J K L M N O P Q R S T U V W X Y Z # 

Axemen Tabs (ver.1)

Heavens To Betsy
Rating:
0/5 (0 votes)

Hard to play? Try these video lessons and learn fast.
                e |-----------------------------------------------------------------|
B |-----------------------------------------------------------------|
G |-----------------------------------------------------------------|
D |-----------------------------------------------------------------|
A |---------------------------------4-4-4-4-4-4-4-4-----------------|
E |-0-0-0-0-0-0-0-0-2-2-2-2-2-2-2-2-----------------4-4-4-4-4-4-4-4-|X3

Play This ^ during the first 3 lines of the Verses (but in the final verse/outro, do it 
times, in the intro, b4 the first verse, do it 2 times)


e |------------------------------------------------------------------|
B |------------------------------------------------------------------|
G |---------------------------------6-6-6-6-6-6-6-6------------------|
D |---------------------------------6-6-6-6-6-6-6-6-6-6-6-6-6-6-6-6--|
A |---------------------------------4-4-4-4-4-4-4-4-6-6-6-6-6-6-6-6--|
E |-0-0-0-0-0-0-0-0-2-2-2-2-2-2-2-2-----------------4-4-4-4-4-4-4-4--|

Play this ^ in the Last line of the verses. (Except for the final verse/outro.)


e |--------------------------------------------------------------------|
B |--------------------------------------------------------------------|
G |-----------------------------------6-6-6-6-6-6-6-6------------------|
D |-2-2-2-2-2-2-2-2--4-4-4-4-4-4-4-4--6-6-6-6-6-6-6-6--6-6-6-6-6-6-6-6-|
A |-2-2-2-2-2-2-2-2--4-4-4-4-4-4-4-4--4-4-4-4-4-4-4-4--6-6-6-6-6-6-6-6-|
E |-0-0-0-0-0-0-0-0--2-2-2-2-2-2-2-2-------------------4-4-4-4-4-4-4-4-|X4

Play This ^ During the chorus. With Distortion if Possible

e |------------------------------------------------------------------|
B |------------------------------------------------------------------|
G |------------------------------------------------------------------|
D |------------------------------------------------------------------|
A |---------------------------------4-4-4-4-4-4-4-4-4-4-4-4-4-4-4-4--|
E |-5-5-5-5-5-5-5-5-4-4-4-4-4-4-4-4----------------------------------|X3

e |------------------------------------------------------------------|
B |------------------------------------------------------------------|
G |---------------------------------6-6-6-6-6-6-6-6-6-6-6-6-6-6-6-6--|
D |---------------------------------6-6-6-6-6-6-6-6-6-6-6-6-6-6-6-6--|
A |---------------------------------4-4-4-4-4-4-4-4-4-4-4-4-4-4-4-4--|
E |-5-5-5-5-5-5-5-5-4-4-4-4-4-4-4-4----------------------------------|

Play this ^ During the Bridge
            
Hard to play? Try these video lessons and learn fast. | Correct




comments powered by Disqus
↑ Back to top | Tablatures and chords are parodies/interpretations of the original songs. You may use it for private study, scholarship, research or language learning purposes only