>
 >
The Weapon They Fear

The Weapon They Fear Bass Tabs

Heaven Shall Burn - The Weapon They Fear chords, tabs, tablatures, lyrics

Guitar lessons | Add/correct | Request | Top 50 tabs Artists:  A B C D E F G H I J K L M N O P Q R S T U V W X Y Z 0-9

The Weapon They Fear Bass Tabs – Heaven Shall Burn

CD, Sheet music, Poster

Do you like The Weapon They Fear? Share with your friends now
Bass Tabs
The Weapon They Fear                               
Heaven Shall Burn
Eric



     S S E  E  E  H           H        Q.     E     Q    Q    H         
F||------------------------|---------------------|---------------------|
C||------------------------|---------------------|---------------------|
G||------------------------|---------------------|---------------------|
C||--0-0-0--0-----0--------|--L--------3------1--|--L----5----1--------|


  W                   Q    Q    H           H        Q.     E   
-------------------|---------------------|---------------------|
-------------------|---------------------|---------------------|
-------------------|---------------------|---------------------|
--L----------------|--L----3----0--------|--L--------3------1--|


  Q    Q    H           W                   E  E  Q    H         
---------------------|-------------------|----------------------|
---------------------|-------------------|----------------------|
---------------------|-------------------|----------------------|
--L----5----3--------|--L----------------|--1--1-------0--------|


  H        Q.     E     Q    Q    H           W                 
---------------------|---------------------|-------------------|
---------------------|---------------------|-------------------|
---------------------|---------------------|-------------------|
--L--------3------1--|--L----5----1--------|--L----------------|


  Q    Q    H           H        Q.     E     Q    Q    H         
---------------------|---------------------|---------------------|
---------------------|---------------------|---------------------|
---------------------|---------------------|---------------------|
--L----3----0--------|--L--------3------1--|--L----5----3--------|


  W                   E  E  Q       E  E  E  E  E  E  E  E   
-------------------|-------------|--------------------------|
-------------------|-------------|--------------------------|
-------------------|-------------|--------------------------|
--L----------------|--1--1-------|--1--0--0--0--0--0--3--0--|


  E  E  E  E  E  E  E  E     E  E  E  E  E  E  E  E   
--------------------------|--------------------------|
--------------------------|--------------------------|
--------------------------|--------------------------|
--0--0--0--0--1--0--1--3--|--1--0--0--0--0--0--3--0--|


  E  E  E  E  E  E  E  E     E  E  E  E  E  E  E  E   
--------------------------|--------------------------|
--------------------------|--------------------------|
--------------------------|--------------------------|
--4--4--3--3--6--6--4--4--|--1--0--0--0--0--0--3--0--|


  E  E  E  E  E  E  E  E     E  E  E  E  E  E  E  E   
--------------------------|--------------------------|
--------------------------|--------------------------|
--------------------------|--------------------------|
--0--0--0--0--1--0--1--3--|--1--0--0--0--0--0--3--0--|


  E  E  E  E  E  E  E  E     E  E  E  E  E  E  E  E   
--------------------------|--------------------------|
--------------------------|--------------------------|
--------------------------|--6--5-----5--------------|
--4--4--3--3--6--6--4--4--|--------0-----0--0--0--0--|


  E  E  E  E  E  E  E  E     E  E  E  E  E  E  E  E   
--------------------------|--------------------------|
--------------------------|--------------------------|
--6--5-----5--------8-----|--6--5-----5--------------|
--------0-----0--0-----0--|--------0-----0--0--0--0--|


  E  E  E  E  E  E  E  E     E  E  E  E  E  E  E  E   
--------------------------|--------------------------|
--------------------------|--------------------------|
--------------------------|--6--5-----5--------------|
--4--4--3--3--6--6--4--4--|--------0-----0--0--0--0--|


  E  E  E  E  E  E  E  E     E  E  E  E  E  E  E  E   
--------------------------|--------------------------|
--------------------------|--------------------------|
--6--5-----5--------8-----|--6--5-----5--------------|
--------0-----0--0-----0--|--------0-----0--0--0--0--|


  E  E  E  E  E  E  E  E     W                   S S E  S S E  Q    S S E   
--------------------------|-------------------|----------------------------|
--------------------------|-------------------|----------------------------|
--------------------------|-------------------|----------------8-----------|
--4--4--3--3--6--6--4--4--|-------------------|--0-0-0--0-0-0-------0-0-0--|


  S S E  E  E  E  E  E  E     E  E  E  E  E  E  E  E   
---------------------------|--------------------------|
---------------------------|--------------------------|
---------8--8--7--7--5--5--|--8--8--8--8--8--8--8--8--|
--0-0-0--------------------|--------------------------|


  E  E  E  E  E  E  E  E     S S E  S S E  Q    S S E   
--------------------------|----------------------------|
--------------------------|----------------------------|
--8--8--8--8--8--8--8--8--|----------------8-----------|
--------------------------|--0-0-0--0-0-0-------0-0-0--|


  S S E  E  E  E  E  E  E     E  E  E  E  E  E  E  E   
---------------------------|--------------------------|
---------------------------|--------------------------|
---------8--8--7--7--8--8--|--8--8--8--8--8--8--8--8--|
--0-0-0--------------------|--------------------------|


  E  E  E  E  E  E  E  E     S S E  S S E  Q    S S E   
--------------------------|----------------------------|
--------------------------|----------------------------|
--8--8--8--8--8--8--8--8--|----------------8-----------|
--------------------------|--0-0-0--0-0-0-------0-0-0--|


  S S E  E  E  E  E  E  E     E  E  E  E  E  E  E  E   
---------------------------|--------------------------|
---------------------------|--------------------------|
---------8--8--7--7--5--5--|--8--8--8--8--8--8--8--8--|
--0-0-0--------------------|--------------------------|


  E  E  E  E  E  E  E  E     S S E  S S E  Q    S S E   
--------------------------|----------------------------|
--------------------------|----------------------------|
--8--8--8--8--8--8--8--8--|----------------8-----------|
--------------------------|--0-0-0--0-0-0-------0-0-0--|


  S S E  E  E  E  E  E  E     E  E  E  E  E  E  E  E     Q    H.            
---------------------------|--------------------------|--------------------|
---------------------------|--------------------------|--------------------|
---------8--8--7--7--8--8--|--8--8--8--8--8--8--8--8--|--8-----------------|
--0-0-0--------------------|--------------------------|--------------------|


  E  E  E  E  E  E  E  E     E  E  E  E  E  E  E  E   
--------------------------|--------------------------|
--------------------------|--------------------------|
--------------------------|--------------------------|
--1--0--0--0--0--0--3--0--|--0--0--0--0--1--0--1--3--|


  E  E  E  E  E  E  E  E     E  E  E  E  E  E  E  E   
--------------------------|--------------------------|
--------------------------|--------------------------|
--------------------------|--------------------------|
--1--0--0--0--0--0--3--0--|--4--4--3--3--6--6--4--4--|


  E  E  E  E  E  E  E  E     E  E  E  E  E  E  E  E   
--------------------------|--------------------------|
--------------------------|--------------------------|
--------------------------|--------------------------|
--1--0--0--0--0--0--3--0--|--0--0--0--0--1--0--1--3--|


  E  E  E  E  E  E  E  E     E  E  E  E  E  E  E  E   
--------------------------|--------------------------|
--------------------------|--------------------------|
--------------------------|--------------------------|
--1--0--0--0--0--0--3--0--|--4--4--3--3--6--6--4--4--|


  E  E  E  E  E  E  E  E     E  E  E  E  E  E  E  E   
--------------------------|--------------------------|
--------------------------|--------------------------|
--6--5-----5--------------|--6--5-----5--------8-----|
--------0-----0--0--0--0--|--------0-----0--0-----0--|


  E  E  E  E  E  E  E  E     E  E  E  E  E  E  E  E   
--------------------------|--------------------------|
--------------------------|--------------------------|
--6--5-----5--------------|--------------------------|
--------0-----0--0--0--0--|--4--4--3--3--6--6--4--4--|


  E  E  E  E  E  E  E  E     E  E  E  E  E  E  E  E   
--------------------------|--------------------------|
--------------------------|--------------------------|
--6--5-----5--------------|--6--5-----5--------8-----|
--------0-----0--0--0--0--|--------0-----0--0-----0--|


  E  E  E  E  E  E  E  E     E  E  E  E  E  E  E  E   
--------------------------|--------------------------|
--------------------------|--------------------------|
--6--5-----5--------------|--------------------------|
--------0-----0--0--0--0--|--4--4--3--3--6--6--4--4--|


  Not sure if Bass pauses here                                        
  Q                            Q    Q    Q       Q    Q    Q    Q     
----------------------------------------------|----------------------|
----------------------------------------------|----------------------|
----------------------------------------------|----------------------|
----------------------------------------------|----------------------|


  E  E  E  E  E  E  E  E     E  E  E  E  E  E  E  E   
--------------------------|--------------------------|
--------------------------|--------------------------|
--8--8--8--8--8--8--8--8--|--8--8--8--8--8--8--8--8--|
--------------------------|--------------------------|


  S S E  S S E  Q    S S E     S S E  E  E  E  E  E  E   
----------------------------|---------------------------|
----------------------------|---------------------------|
----------------8-----------|---------8--8--7--7--8--8--|
--0-0-0--0-0-0-------0-0-0--|--0-0-0--------------------|


  E  E  E  E  E  E  E  E     E  E  E  E  E  E  E  E   
--------------------------|--------------------------|
--------------------------|--------------------------|
--8--8--8--8--8--8--8--8--|--8--8--8--8--8--8--8--8--|
--------------------------|--------------------------|


  S S E  S S E  Q    S S E     S S E  E  E  E  E  E  E   
----------------------------|---------------------------|
----------------------------|---------------------------|
----------------8-----------|---------8--8--7--7--5--5--|
--0-0-0--0-0-0-------0-0-0--|--0-0-0--------------------|


  E  E  E  E  E  E  E  E     E  E  E  E  E  E  E  E   
--------------------------|--------------------------|
--------------------------|--------------------------|
--8--8--8--8--8--8--8--8--|--8--8--8--8--8--8--8--8--|
--------------------------|--------------------------|


  S S E  S S E  Q    S S E     S S E  E  E  E  E  E  E   
----------------------------|---------------------------|
----------------------------|---------------------------|
----------------8-----------|---------8--8--7--7--8--8--|
--0-0-0--0-0-0-------0-0-0--|--0-0-0--------------------|


  E  E  E  E  E  E  E  E     W                   W                 
--------------------------|-------------------|-------------------|
--------------------------|-------------------|-------------------|
--8--8--8--8--8--8--8--8--|--8----------------|--7----------------|
--------------------------|-------------------|-------------------|


  S S E  E  E  S S E  E  E     E  E  E  E  E  E  E  E   
----------------------------|--------------------------|
----------------------------|--------------------------|
----------------------------|--8--------7--------7--8--|
--0-0-0--0--0--0-0-0--0--0--|-----0--0-----0--0--------|


  S S E  E  E  S S E  E  E      E  E  E  E  E  E  E  E   
----------------------------|---------------------------|
----------------------------|--10-----------------------|
----------------------------|------------8--------7--8--|
--0-0-0--0--0--0-0-0--0--0--|------8--8-----8--8--------|


  S S E  E  E  S S E  E  E     E  E  E  E  E  E  E  E   
----------------------------|--------------------------|
----------------------------|--------------------------|
----------------------------|--8--------7--------7--8--|
--0-0-0--0--0--0-0-0--0--0--|-----0--0-----0--0--------|


  S S E  E  E  S S E  E  E      E  E  E  E  E  E  E  E   
----------------------------|---------------------------|
----------------------------|--10-----------------------|
----------------------------|------------8--------7--8--|
--0-0-0--0--0--0-0-0--0--0--|------8--8-----8--8--------|


  E  E   E  E  E   E  E  E      E  E  E   E  E  E   E   E   
----------------------------|------------------------------|
----------------------------|------------------------------|
--------12--------10--------|--12--------10--------10--12--|
--0--0------0--0------0--0--|------0--0------0--0----------|


  E  E   E  E  E   E  E  E      E  E  E  E  E  E  E  E   
----------------------------|---------------------------|
----------------------------|---------------------------|
--------12--------10--------|---------------------------|
--0--0------0--0------0--0--|--10--8--8--8--8--8--7--8--|


  E  E   E  E  E   E  E  E      E  E  E   E  E  E   E   E   
----------------------------|------------------------------|
----------------------------|------------------------------|
--------12--------10--------|--12--------10--------10--12--|
--0--0------0--0------0--0--|------0--0------0--0----------|


  E  E   E  E  E   E  E  E      E  E  E  E  E  E  E  E   
----------------------------|---------------------------|
----------------------------|---------------------------|
--------12--------10--------|---------------------------|
--0--0------0--0------0--0--|--10--8--8--8--8--8--7--8--|


  S S E  E  E  S S E  E  E     E  E  E  E  E  E  E  E   
----------------------------|--------------------------|
----------------------------|--------------------------|
----------------------------|--8--------7--------7--8--|
--0-0-0--0--0--0-0-0--0--0--|-----0--0-----0--0--------|


  S S E  E  E  S S E  E  E      E  E  E  E  E  E  E  E   
----------------------------|---------------------------|
----------------------------|--10-----------------------|
----------------------------|------------8--------7--8--|
--0-0-0--0--0--0-0-0--0--0--|------8--8-----8--8--------|


  S S E  E  E  S S E  E  E     E  E  E  E  E  E  E  E   
----------------------------|--------------------------|
----------------------------|--------------------------|
----------------------------|--8--------7--------7--8--|
--0-0-0--0--0--0-0-0--0--0--|-----0--0-----0--0--------|


  S S E  E  E  S S E  E  E      E  E  E  E  E  E  E  E     W                 
----------------------------|---------------------------|-------------------|
----------------------------|--10-----------------------|-------------------|
----------------------------|------------8--------7--8--|-------------------|
--0-0-0--0--0--0-0-0--0--0--|------8--8-----8--8--------|--0----------------|


  W                   W                   H        Q    Q     
-------------------|-------------------|---------------------|
-------------------|-------------------|---------------------|
-------------------|-------------------|---------------------|
--L----------------|--L----------------|--L--------1---------|


  E  E  E  E  E  E  E  E     E  E  E  E  E  E  E  E   
--------------------------|--------------------------|
--------------------------|--------------------------|
--------------------------|--------------------------|
--1--0--0--0--0--0--3--0--|--0--0--0--0--1--0--1--3--|


  E  E  E  E  E  E  E  E     E  E  E  E  E  E  E  E   
--------------------------|--------------------------|
--------------------------|--------------------------|
--------------------------|--------------------------|
--1--0--0--0--0--0--3--0--|--4--4--3--3--6--6--4--4--|


  E  E  E  E  E  E  E  E     E  E  E  E  E  E  E  E   
--------------------------|--------------------------|
--------------------------|--------------------------|
--------------------------|--------------------------|
--1--0--0--0--0--0--3--0--|--0--0--0--0--1--0--1--3--|


  E  E  E  E  E  E  E  E     E  E  E  E  E  E  E  E   
--------------------------|--------------------------|
--------------------------|--------------------------|
--------------------------|--------------------------|
--1--0--0--0--0--0--3--0--|--4--4--3--3--6--6--4--4--|


  E  E  E  E  E  E  E  E     E  E  E  E  E  E  E  E   
--------------------------|--------------------------|
--------------------------|--------------------------|
--6--5-----5--------------|--6--5-----5--------8-----|
--------0-----0--0--0--0--|--------0-----0--0-----0--|


  E  E  E  E  E  E  E  E     E  E  E  E  E  E  E  E   
--------------------------|--------------------------|
--------------------------|--------------------------|
--6--5-----5--------------|--------------------------|
--------0-----0--0--0--0--|--4--4--3--3--6--6--4--4--|


  E  E  E  E  E  E  E  E     E  E  E  E  E  E  E  E   
--------------------------|--------------------------|
--------------------------|--------------------------|
--6--5-----5--------------|--6--5-----5--------8-----|
--------0-----0--0--0--0--|--------0-----0--0-----0--|


  E  E  E  E  E  E  E  E     E  E  E  E  E  E  E  E     W                 
--------------------------|--------------------------|-------------------|
--------------------------|--------------------------|-------------------|
--6--5-----5--------------|--------------------------|-------------------|
--------0-----0--0--0--0--|--4--4--3--3--6--6--4--4--|-------------------|


  E  E  E  E  E  E  Q       E  E  E  E  Q    Q       E  E  E  E  E  E  Q     
-------------------------|------------------------|-------------------------|
-------------------------|------------------------|-------------------------|
-------------------------|------------------------|-------------------------|
--0--0--0--0--0--0--3----|--0--0--0--0--1----3----|--0--0--0--0--0--0--3----|


  E  E  E  E  Q    Q       E  E  E  E  E  E  Q       E  E  E  E  Q    Q     
------------------------|-------------------------|------------------------|
------------------------|-------------------------|------------------------|
------------------------|-------------------------|------------------------|
--0--0--0--0--1----3----|--0--0--0--0--0--0--3----|--0--0--0--0--1----3----|


  E  E  E  E  E  E  Q       E  E  E  E  Q    Q       S S E  E  E  S S E  E  E   
-------------------------|------------------------|----------------------------|
-------------------------|------------------------|----------------------------|
-------------------------|------------------------|----------------------------|
--0--0--0--0--0--0--3----|--0--0--0--0--1----3----|--0-0-0--0--0--0-0-0--0--0--|


  E  E  E  E  E  E  E  E     S S E  E  E  S S E  E  E   
--------------------------|----------------------------|
--------------------------|----------------------------|
--8--------7--------7--8--|----------------------------|
-----0--0-----0--0--------|--0-0-0--0--0--0-0-0--0--0--|


   E  E  E  E  E  E  E  E     S S E  E  E  S S E  E  E   
---------------------------|----------------------------|
--10-----------------------|----------------------------|
------------8--------7--8--|----------------------------|
------8--8-----8--8--------|--0-0-0--0--0--0-0-0--0--0--|


  E  E  E  E  E  E  E  E     S S E  E  E  S S E  E  E   
--------------------------|----------------------------|
--------------------------|----------------------------|
--8--------7--------7--8--|----------------------------|
-----0--0-----0--0--------|--0-0-0--0--0--0-0-0--0--0--|


   E  E  E  E  E  E  E  E     W                   W                 
---------------------------|-------------------|-------------------|
--10-----------------------|-------------------|-------------------|
------------8--------7--8--|-------------------|-------------------|
------8--8-----8--8--------|--0----------------|--L----------------|


  W                   W                  
-------------------|-------------------||
-------------------|-------------------||
-------------------|-------------------||
--L----------------|--L----------------||




Duration Legend
---------------
W - whole
H - half
Q - quarter
E - 8th
S - 16th
T - 32nd
X - 64th
. - note dotted
|-n-|  - n-tuplets


Tablature Legend
----------------
L - tied note
x - dead note
g - grace note
(n) - ghost note
> - accentuded note
NH - natural harmonic
AH - artificial harmonic
TH - tapped harmonic
SH - semi harmonic
PH - pitch harmonic
h - hammer on
p - pull off
b - bend
br - bendRelease
pb - preBend
pbr - preBendRelease
brb - bendReleaseBend
\n/ - tremolo bar dip
\n - tremolo bar dive
-/n - tremolo bar Release up
/n\ - tremolo bar inverted dip
/n - tremolo bar return
-\n - tremolo bar Release down
S - shift slide
s - legato slide
/ -  slide into from below or out of upwards
\ -  slide into from above or out of downwards
~ - vibrato
W - wide vibrato
tr - trill
TP - tremolo picking
T - tapping
S - slap
P - pop
< - fade in
^ - brush up
v - brush down





Comments


Popular Heaven Shall Burn tabs & chords
Bleeding To Death Bass Tabs
Endzeit Bass Tabs
Stay The Course 2 Bass Tabs
Voice Of The Voiceless 2 Bass Tabs
Armia Tabs
Atonement Tabs
Atonement 1 Tabs
Awoken Tabs
Forlorn Skies Tabs
Of Forsaken Poets Tabs


Song lyrics



↑ Back to top | Tablatures and chords are parodies/interpretations of the original songs. You may use it for private study, scholarship, research or language learning purposes only
© 2014 AZChords.com Contact us | Privacy policy | DMCA | Add/correct tabs | Request tabs | Top 50 tabs