» » »

Heaven Shall Burn, Only Truth Bass tabs (ver.1)

Artists:  A B C D E F G H I J K L M N O P Q R S T U V W X Y Z # 

Only Truth Bass tabs (ver.1)

Heaven Shall Burn Tabs
Rating:
0/5 (0 votes)
Only Truth lessons Tabs too difficult? Try these video lessons and learn fast
                the only truth                                  
heaven shall burn
Eric Bischoff



     E  E  E  E  E  E  E  E     E  E  E  E  E  E  E  E   
F||--------------------------|--------------------------|
C||--------------------------|--------------------------|
G||--------------------------|--------------------------|
C||--1--0--0--1--0--0--1--0--|--1--0--0--1--0--0--3--3--|


  E  E  E  E  E  E  E  E     E  E  E  E  E  E  E  E   
--------------------------|--------------------------|
--------------------------|--------------------------|
--------------------------|--------------------------|
--1--0--0--1--0--0--1--0--|--5--0--0--3--0--0--1--3--|


  E  E  E  E  E  E  E  E     E  E  E  E  E  E  E  E   
--------------------------|--------------------------|
--------------------------|--------------------------|
--------------------------|--------------------------|
--1--0--0--1--0--0--1--0--|--1--0--0--1--0--0--3--3--|


  E  E  E  E  E  E  E  E     E  E  E  E  E  E  E  E   
--------------------------|--------------------------|
--------------------------|--------------------------|
--------------------------|--------------------------|
--1--0--0--1--0--0--1--0--|--3--1--0--3--3--1--0--0--|


  E  E  E  E  E  E  E  E     E  E  E  E  E  E  E  E   
--------------------------|--------------------------|
--------------------------|--------------------------|
--------------------------|--------------------------|
--0--0--0--0--0--0--0--0--|--0--0--0--0--0--0--0--0--|


  E  E  E  E  E  E  E  E     E  E  E  E  E  E  E  E   
--------------------------|--------------------------|
--------------------------|--------------------------|
--------------------------|--------------------------|
--8--8--8--8--8--8--8--8--|--7--7--7--7--7--7--7--7--|


  E  E  E  E  E  E  E  E     E  E  E  E  E  E  E  E   
--------------------------|--------------------------|
--------------------------|--------------------------|
--------------------------|--------------------------|
--0--0--0--0--0--0--0--0--|--0--0--0--0--0--0--0--0--|


  E  E  E  E  E  E  E  E     E  E  Q    H           S S E  S S E  E  E  E  E   
--------------------------|----------------------|----------------------------|
--------------------------|----------------------|----------------------------|
--------------------------|----------------------|----------------------------|
--8--8--8--8--8--8--8--8--|--7-------------------|--0-0-0--0-0-0--0--0--0--0--|


  S S E  S S E  E  E  E  E     S S E  S S E  E  E  E  E   
----------------------------|----------------------------|
----------------------------|----------------------------|
----------------------------|----------------------------|
--0-0-0--0-0-0--1--1--0--1--|--0-0-0--0-0-0--0--0--0--0--|


  S S E  S S E  S S E  S S E     S S E  S S E  E  E  E  E   
------------------------------|----------------------------|
------------------------------|----------------------------|
------------------------------|----------------------------|
--3-3-3--3-3-3--1-1-1--1-1-1--|--0-0-0--0-0-0--0--0--0--0--|


  S S E  S S E  E  E  E  E     S S E  S S E  E  E  E  E     W                 
----------------------------|----------------------------|-------------------|
----------------------------|----------------------------|-------------------|
----------------------------|----------------------------|-------------------|
--0-0-0--0-0-0--1--1--0--1--|--0-0-0--0-0-0--0--0--0--0--|-------------------|


  S S E  S S E  E  E  E  E     S S E  S S E  E  E  E  E   
----------------------------|----------------------------|
----------------------------|----------------------------|
----------------------------|----------------------------|
--0-0-0--0-0-0--0--0--0--0--|--0-0-0--0-0-0--1--1--0--1--|


  S S E  S S E  E  E  E  E     S S E  S S E  S S E  S S E   
----------------------------|------------------------------|
----------------------------|------------------------------|
----------------------------|------------------------------|
--0-0-0--0-0-0--0--0--0--0--|--3-3-3--3-3-3--1-1-1--1-1-1--|


  S S E  S S E  E  E  E  E     S S E  S S E  E  E  E  E   
----------------------------|----------------------------|
----------------------------|----------------------------|
----------------------------|----------------------------|
--0-0-0--0-0-0--0--0--0--0--|--0-0-0--0-0-0--1--1--0--1--|


  S S E  S S E  E  E  E  E     S S E  S S E  S S E  S S E   
----------------------------|------------------------------|
----------------------------|------------------------------|
----------------------------|------------------------------|
--0-0-0--0-0-0--0--0--0--0--|--3-3-3--3-3-3--1-1-1--1-1-1--|


  E  E  E  E  E  E  E  E     E  E  E  E  E  E  E  E   
--------------------------|--------------------------|
--------------------------|--------------------------|
--------------------------|--------------------------|
--0--0--0--0--0--0--0--0--|--0--0--0--0--1--1--0--1--|


  E  E  E  E  E  E  E  E     E  E  E  E  E  E  E  E   
--------------------------|--------------------------|
--------------------------|--------------------------|
--------------------------|--------------------------|
--5--5--5--5--5--5--5--5--|--5--5--5--5--8--8--7--7--|


  E  E  E  E  E  E  E  E     E  E  E  E  E  E  E  E   
--------------------------|--------------------------|
--------------------------|--------------------------|
--------------------------|--------------------------|
--3--3--3--3--3--3--3--3--|--3--3--3--3--3--3--0--0--|


  E  E  E  E  E  E  E  E     E  E  E  E  E  E  E  E   
--------------------------|--------------------------|
--------------------------|--------------------------|
--------------------------|--------------------------|
--5--5--5--5--5--5--5--5--|--3--3--3--3--1--1--1--1--|


  E  E  E  E  E  E  E  E     E  E  E  E  E  E  E  E   
--------------------------|--------------------------|
--------------------------|--------------------------|
--------------------------|--------------------------|
--0--0--0--0--0--0--0--0--|--0--0--0--0--1--1--0--1--|


  E  E  E  E  E  E  E  E     E  E  E  E  E  E  E  E   
--------------------------|--------------------------|
--------------------------|--------------------------|
--------------------------|--------------------------|
--5--5--5--5--5--5--5--5--|--5--5--5--5--8--8--7--7--|


  E  E  E  E  E  E  E  E     E  E  E  E  E  E  E  E   
--------------------------|--------------------------|
--------------------------|--------------------------|
--------------------------|--------------------------|
--3--3--3--3--3--3--3--3--|--3--3--3--3--3--3--0--0--|


  E  E  E  E  E  E  E  E     E  E  E  E  E  E  E  E     W                 
--------------------------|--------------------------|-------------------|
--------------------------|--------------------------|-------------------|
--------------------------|--------------------------|-------------------|
--5--5--5--5--5--5--5--5--|--3--3--3--3--1--1--1--1--|--0----------------|


  W                     E  E  E   E  E  E  E  E     E  E  E   E  E  E  E   E   
-------------------||----------------------------|----------------------------|
-------------------||*---------------------------|----------------------------|
-------------------||*-----------10--8--------8--|--7--------10--8--------10--|
--L----------------||---0--0--0---------0--0-----|-----0--0---------0--0------|


  E  E  E  E  E  E  E   E     E  E  E  E  E  E  E   E   
---------------------------|---------------------------|
---------------------------|---------------------------|
--8-----7--8-----------10--|--8--------8--7--------10--|
-----0--------0--0--0------|-----0--0--------0--0------|


  E  E  E  E  E  E  E   E        E  E  E   E  E  E  E  E   
----------------------------||----------------------------|
---------------------------*||*---------------------------|
--8--------7-----8-----10--*||*-----------10--8--------8--|
-----0--0-----0-----0-------||---0--0--0---------0--0-----|


  E  E  E   E  E  E  E   E     E  E  E  E  E  E  E   E   
----------------------------|---------------------------|
----------------------------|---------------------------|
--7--------10--8--------10--|--8-----7--8-----------10--|
-----0--0---------0--0------|-----0--------0--0--0------|


  E  E  E  E  E  E  E   E     E  E  E  E  E  E  E   E     
---------------------------|----------------------------||
---------------------------|---------------------------*||
--8--------8--7--------10--|--8--------7-----8-----10--*||
-----0--0--------0--0------|-----0--0-----0-----0-------||


  E  E  E  E  H           W                   W                 
-----------------------|-------------------|-------------------|
-----------------------|-------------------|-------------------|
--8--------7-----------|-------------------|-------------------|
-----0--0--------------|--0----------------|--L----------------|


  W                   W                   W                   W                 
-------------------|-------------------|-------------------|-------------------|
-------------------|-------------------|-------------------|-------------------|
-------------------|-------------------|-------------------|-------------------|
--L----------------|--L----------------|--L----------------|--L----------------|


  W                   W                   W                   W                 
-------------------|-------------------|-------------------|-------------------|
-------------------|-------------------|-------------------|-------------------|
-------------------|-------------------|-------------------|-------------------|
--L----------------|--L----------------|--L----------------|--L----------------|


  W                   W                     S S E  S S E  Q    S S E   
-------------------|-------------------||-----------------------------|
-------------------|-------------------||*----------------------------|
-------------------|-------------------||*----------------------------|
--L----------------|--L----------------||---0-0-0--0-0-0-------0-0-0--|


  Q    S S E  Q    S S E     S S E  S S E  Q    S S E   
--------------------------|----------------------------|
--------------------------|----------------------------|
--------------------------|----------------------------|
-------0-0-0-------0-0-0--|--0-0-0--0-0-0-------0-0-0--|


   E  E  E  E  E  E   E  E        S S E  S S E  Q    S S E   
-----------------------------||-----------------------------|
----------------------------*||*----------------------------|
--10--8-----8--7-----10--8--*||*----------------------------|
---------0--------0----------||---0-0-0--0-0-0-------0-0-0--|


  Q    S S E  Q    S S E     S S E  S S E  Q    S S E   
--------------------------|----------------------------|
--------------------------|----------------------------|
--------------------------|----------------------------|
-------0-0-0-------0-0-0--|--0-0-0--0-0-0-------0-0-0--|


  Q    S S E  Q    S S E       Q    Q    Q    Q       Q    H        Q     
---------------------------||----------------------|---------------------|
--------------------------*||----------------------|---------------------|
--------------------------*||----------------------|---------------------|
-------0-0-0-------0-0-0---||--3----3----3----3----|--L----3--------3----|


  Q    Q    Q    Q       Q    H        Q       S S E  S S E  Q    S S E   
----------------------|---------------------|----------------------------|
----------------------|---------------------|----------------------------|
----------------------|---------------------|----------------------------|
--3----3----3----3----|--L----3--------3----|--0-0-0--0-0-0-------0-0-0--|


  Q    S S E  Q    S S E     S S E  S S E  Q    S S E   
--------------------------|----------------------------|
--------------------------|----------------------------|
--------------------------|----------------------------|
-------0-0-0-------0-0-0--|--0-0-0--0-0-0-------0-0-0--|


  Q    S S E  Q    S S E       E  E  E   E  E  E  E  E   
--------------------------||----------------------------|
--------------------------||*---------------------------|
--------------------------||*-----------10--8--------8--|
-------0-0-0-------0-0-0--||---0--0--0---------0--0-----|


  E  E  E   E  E  E  E   E     E  E  E  E  E  E  E   E   
----------------------------|---------------------------|
----------------------------|---------------------------|
--7--------10--8--------10--|--8-----7--8-----------10--|
-----0--0---------0--0------|-----0--------0--0--0------|


  E  E  E  E  E  E  E   E     E  E  E  E  E  E  E   E     
---------------------------|----------------------------||
---------------------------|---------------------------*||
--8--------8--7--------10--|--8--------7-----8-----10--*||
-----0--0--------0--0------|-----0--0-----0-----0-------||


   E  E  E   E  E  E  E  E     E  E  E   E  E  E  E   E   
----------------------------|----------------------------|
*---------------------------|----------------------------|
*-----------10--8--------8--|--7--------10--8--------10--|
---0--0--0---------0--0-----|-----0--0---------0--0------|


  E  E  E  E  E  E  E   E     E  E  E  E  E  E  E   E   
---------------------------|---------------------------|
---------------------------|---------------------------|
--8-----7--8-----------10--|--8--------8--7--------10--|
-----0--------0--0--0------|-----0--0--------0--0------|


  E  E  E  E  E  E  E   E       E  E  E  E  H           Q    Q    E  E  E  E   
----------------------------||-----------------------|------------------------|
---------------------------*||-----------------------|------------------------|
--8--------7-----8-----10--*||--8--------7-----------|------------------------|
-----0--0-----0-----0-------||-----0--0--------------|--0---------0--0--0--0--|


  Q    Q    Q    Q       Q    Q    E  E  E  E     Q    Q    Q    Q     
----------------------|------------------------|----------------------|
----------------------|------------------------|----------------------|
----------------------|------------------------|----------------------|
-------0--------------|--0---------0--0--0--0--|-------0--------------|


  Q    Q    E  E  E  E     W                   E  E  E  E  E  E  E  E   
------------------------|-------------------|--------------------------|
------------------------|-------------------|--------------------------|
------------------------|-------------------|--------------------------|
--0---------0--0--0--0--|-------------------|--0--0--0--0--0--0--0--0--|


  E  E  E  E  E  E  E  E     E  E  E  E  E  E  E  E   
--------------------------|--------------------------|
--------------------------|--------------------------|
--------------------------|--------------------------|
--0--0--0--0--0--0--0--0--|--8--8--8--8--8--8--8--8--|


  E  E  E  E  E  E  E  E     E  E  E  E  E  E  E  E   
--------------------------|--------------------------|
--------------------------|--------------------------|
--------------------------|--------------------------|
--7--7--7--7--7--7--7--7--|--0--0--0--0--0--0--0--0--|


  E  E  E  E  E  E  E  E     E  E  E  E  E  E  E  E   
--------------------------|--------------------------|
--------------------------|--------------------------|
--------------------------|--------------------------|
--0--0--0--0--0--0--0--0--|--8--8--8--8--8--8--8--8--|


  E  E  E  E  E  E  E  E     E  E  E  E  E  E  E  E   
--------------------------|--------------------------|
--------------------------|--------------------------|
--------------------------|--------------------------|
--7--7--7--7--7--7--7--7--|--0--0--0--0--0--0--0--0--|


  E  E  E  E  E  E  E  E     E  E  E  E  E  E  E  E   
--------------------------|--------------------------|
--------------------------|--------------------------|
--------------------------|--------------------------|
--0--0--0--0--0--0--0--0--|--8--8--8--8--8--8--8--8--|


  E  E  E  E  E  E  E  E     E  E  E  E  E  E  E  E   
--------------------------|--------------------------|
--------------------------|--------------------------|
--------------------------|--------------------------|
--7--7--7--7--7--7--7--7--|--0--0--0--0--0--0--0--0--|


  E  E  E  E  E  E  E  E     E  E  E  E  E  E  E  E     E  E  Q    H         
--------------------------|--------------------------|----------------------|
--------------------------|--------------------------|----------------------|
--------------------------|--------------------------|----------------------|
--0--0--0--0--0--0--0--0--|--8--8--8--8--8--8--8--8--|--7-------------------|


  S S E  S S E  E  E  E  E     S S E  S S E  E  E  E  E   
----------------------------|----------------------------|
----------------------------|----------------------------|
----------------------------|----------------------------|
--0-0-0--0-0-0--0--0--0--0--|--0-0-0--0-0-0--1--1--0--1--|


  S S E  S S E  E  E  E  E     S S E  S S E  S S E  S S E   
----------------------------|------------------------------|
----------------------------|------------------------------|
----------------------------|------------------------------|
--0-0-0--0-0-0--0--0--0--0--|--3-3-3--3-3-3--1-1-1--1-1-1--|


  S S E  S S E  E  E  E  E     S S E  S S E  E  E  E  E   
----------------------------|----------------------------|
----------------------------|----------------------------|
----------------------------|----------------------------|
--0-0-0--0-0-0--0--0--0--0--|--0-0-0--0-0-0--1--1--0--1--|


  S S E  S S E  E  E  E  E     W                   S S E  S S E  E  E  E  E   
----------------------------|-------------------|----------------------------|
----------------------------|-------------------|----------------------------|
----------------------------|-------------------|----------------------------|
--0-0-0--0-0-0--0--0--0--0--|-------------------|--0-0-0--0-0-0--0--0--0--0--|


  S S E  S S E  E  E  E  E     S S E  S S E  E  E  E  E   
----------------------------|----------------------------|
----------------------------|----------------------------|
----------------------------|----------------------------|
--0-0-0--0-0-0--1--1--0--1--|--0-0-0--0-0-0--0--0--0--0--|


  S S E  S S E  S S E  S S E     S S E  S S E  E  E  E  E   
------------------------------|----------------------------|
------------------------------|----------------------------|
------------------------------|----------------------------|
--3-3-3--3-3-3--1-1-1--1-1-1--|--0-0-0--0-0-0--0--0--0--0--|


  S S E  S S E  E  E  E  E     S S E  S S E  E  E  E  E   
----------------------------|----------------------------|
----------------------------|----------------------------|
----------------------------|----------------------------|
--0-0-0--0-0-0--1--1--0--1--|--0-0-0--0-0-0--0--0--0--0--|


  S S E  S S E  S S E  S S E     E  E  E  E  E  E  E  E   
------------------------------|--------------------------|
------------------------------|--------------------------|
------------------------------|--------------------------|
--3-3-3--3-3-3--1-1-1--1-1-1--|--0--0--0--0--0--0--0--0--|


  E  E  E  E  E  E  E  E     E  E  E  E  E  E  E  E   
--------------------------|--------------------------|
--------------------------|--------------------------|
--------------------------|--------------------------|
--0--0--0--0--1--1--0--1--|--5--5--5--5--5--5--5--5--|


  E  E  E  E  E  E  E  E     E  E  E  E  E  E  E  E   
--------------------------|--------------------------|
--------------------------|--------------------------|
--------------------------|--------------------------|
--5--5--5--5--8--8--7--7--|--3--3--3--3--3--3--3--3--|


  E  E  E  E  E  E  E  E     E  E  E  E  E  E  E  E   
--------------------------|--------------------------|
--------------------------|--------------------------|
--------------------------|--------------------------|
--3--3--3--3--3--3--0--0--|--5--5--5--5--5--5--5--5--|


  E  E  E  E  E  E  E  E     E  E  E  E  E  E  E  E   
--------------------------|--------------------------|
--------------------------|--------------------------|
--------------------------|--------------------------|
--3--3--3--3--1--1--1--1--|--0--0--0--0--0--0--0--0--|


  E  E  E  E  E  E  E  E     E  E  E  E  E  E  E  E   
--------------------------|--------------------------|
--------------------------|--------------------------|
--------------------------|--------------------------|
--0--0--0--0--1--1--0--1--|--5--5--5--5--5--5--5--5--|


  E  E  E  E  E  E  E  E     E  E  E  E  E  E  E  E   
--------------------------|--------------------------|
--------------------------|--------------------------|
--------------------------|--------------------------|
--5--5--5--5--8--8--7--7--|--3--3--3--3--3--3--3--3--|


  E  E  E  E  E  E  E  E     E  E  E  E  E  E  E  E   
--------------------------|--------------------------|
--------------------------|--------------------------|
--------------------------|--------------------------|
--3--3--3--3--3--3--0--0--|--5--5--5--5--5--5--5--5--|


  E  E  E  E  E  E  E  E     S S E  S S E  Q    S S E   
--------------------------|----------------------------|
--------------------------|----------------------------|
--------------------------|----------------------------|
--3--3--3--3--1--1--1--1--|--0-0-0--0-0-0-------0-0-0--|


  Q    S S E  Q    S S E     S S E  S S E  Q    S S E   
--------------------------|----------------------------|
--------------------------|----------------------------|
--------------------------|----------------------------|
-------0-0-0-------0-0-0--|--0-0-0--0-0-0-------0-0-0--|


  Q    S S E  Q    S S E     S S E  S S E  Q    S S E   
--------------------------|----------------------------|
--------------------------|----------------------------|
--------------------------|----------------------------|
-------0-0-0-------0-0-0--|--0-0-0--0-0-0-------0-0-0--|


  Q    S S E  Q    S S E     S S E  S S E  Q    S S E   
--------------------------|----------------------------|
--------------------------|----------------------------|
--------------------------|----------------------------|
-------0-0-0-------0-0-0--|--0-0-0--0-0-0-------0-0-0--|


  Q    S S E  Q    S S E     S S E  S S E  Q    S S E   
--------------------------|----------------------------|
--------------------------|----------------------------|
--------------------------|----------------------------|
-------0-0-0-------0-0-0--|--0-0-0--0-0-0-------0-0-0--|


  Q    S S E  Q    S S E     S S E  S S E  Q    S S E   
--------------------------|----------------------------|
--------------------------|----------------------------|
--------------------------|----------------------------|
-------0-0-0-------0-0-0--|--0-0-0--0-0-0-------0-0-0--|


  Q    S S E  Q    S S E     S S E  S S E  Q    S S E   
--------------------------|----------------------------|
--------------------------|----------------------------|
--------------------------|----------------------------|
-------0-0-0-------0-0-0--|--0-0-0--0-0-0-------0-0-0--|


  Q    S S E  Q    S S E     S S E  S S E  Q    S S E   
--------------------------|----------------------------|
--------------------------|----------------------------|
--------------------------|----------------------------|
-------0-0-0-------0-0-0--|--0-0-0--0-0-0-------0-0-0--|


  Q    S S E  Q    S S E    
--------------------------||
--------------------------||
--------------------------||
-------0-0-0-------0-0-0--||




Duration Legend
---------------
W - whole
H - half
Q - quarter
E - 8th
S - 16th
T - 32nd
X - 64th
. - note dotted
|-n-|  - n-tuplets


Tablature Legend
----------------
L - tied note
x - dead note
g - grace note
(n) - ghost note
> - accentuded note
NH - natural harmonic
AH - artificial harmonic
TH - tapped harmonic
SH - semi harmonic
PH - pitch harmonic
h - hammer on
p - pull off
b - bend
br - bendRelease
pb - preBend
pbr - preBendRelease
brb - bendReleaseBend
\n/ - tremolo bar dip
\n - tremolo bar dive
-/n - tremolo bar Release up
/n\ - tremolo bar inverted dip
/n - tremolo bar return
-\n - tremolo bar Release down
S - shift slide
s - legato slide
/ -  slide into from below or out of upwards
\ -  slide into from above or out of downwards
~ - vibrato
W - wide vibrato
tr - trill
TP - tremolo picking
T - tapping
S - slap
P - pop
< - fade in
^ - brush up
v - brush down
            

comments powered by Disqus
↑ Back to top | Heaven Shall Burn Bass for Only Truth. Lyrics for acoustic guitar and electric guitar. Tablatures and chords are parodies/interpretations of the original songs. You may use it for private study, scholarship, research or language learning purposes only