>
 >
Stay The Course

Stay The Course Bass Tabs

Heaven Shall Burn - Stay The Course chords, tabs, tablatures, lyrics

Guitar lessons | Add/correct | Request | Top 50 tabs Artists:  A B C D E F G H I J K L M N O P Q R S T U V W X Y Z 0-9

Stay The Course Bass Tabs – Heaven Shall Burn

CD, Sheet music, Poster

Do you like Stay The Course? Share with your friends now
Bass TabsBass Tabs v2Tabs
Raita 5
     E     E  E  E  E  E     E     E     W                   W                 
G||-----|-----------------|-----|-----|-------------------|-------------------|
C||-----|-----------------|-----|-----|-------------------|-------------------|
G||-----|-----------------|-----|-----|-------------------|-------------------|
C||--0--|-----5--------5--|--0--|--7--|--0----------------|--L----------------|


  E     E     E  E  E  E  E  E  E  E     E  E  E  E  E  E  E  E   
-----|-----|--------------------------|--------------------------|
-----|-----|--------------------------|--------------------------|
-----|-----|--------------------------|--------------------------|
--7--|--8--|--0--0--0--0--0--0--0--0--|--0--5--5--5--5--5--5--5--|


  E  E  E  E  E  E  E  E     E  E  E  E  E  E  E  E   
--------------------------|--------------------------|
--------------------------|--------------------------|
--------------------------|--------------------------|
--0--0--0--0--0--0--0--0--|--7--7--7--7--7--7--7--7--|


  E  E  E  E  E  E  E  E     E  E  E  E  E  E  E  E     E     E   
--------------------------|--------------------------|-----|-----|
--------------------------|--------------------------|-----|-----|
--------------------------|--------------------------|-----|-----|
--0--0--0--0--0--0--0--0--|--0--5--5--5--5--5--5--5--|--7--|--8--|


  Q    E  E  E  E  E  E     Q    E  E  Q    E  E     Q    E  E  E  E  E  E   
-------------------------|------------------------|-------------------------|
-------------------------|------------------------|-------------------------|
-------------------------|------------------------|-------------------------|
--5----5--5--5--5--5--5--|--5----5--5--8----8--8--|--1----1--1--1--1--1--1--|


  Q    E  E  E  E  E  E     Q    E  E  E  E  E  E     Q    E  E  Q    E  E   
-------------------------|-------------------------|------------------------|
-------------------------|-------------------------|------------------------|
-------------------------|-------------------------|------------------------|
--3----3--3--3--2--3--3--|--5----5--5--5--5--5--5--|--5----5--5--8----8--8--|


  Q    E  E  E  E  E  E     Q    E  E  E  E  E  E     Q    E  E  E  E  E  E   
-------------------------|-------------------------|-------------------------|
-------------------------|-------------------------|-------------------------|
-------------------------|-------------------------|-------------------------|
--3----3--3--3--3--3--3--|--2----2--2--2--2--3--3--|--5----5--5--5--5--5--5--|


  Q    E  E  Q    E  E     Q    E  E  E  E  E  E     Q    E  E  E  E  E  E   
------------------------|-------------------------|-------------------------|
------------------------|-------------------------|-------------------------|
------------------------|-------------------------|-------------------------|
--5----5--5--8----8--8--|--1----1--1--1--1--1--1--|--3----3--3--3--2--3--3--|


  Q    E  E  E  E  E  E     Q    E  E  Q    E  E     Q    E  E  E  E  E  E   
-------------------------|------------------------|-------------------------|
-------------------------|------------------------|-------------------------|
-------------------------|------------------------|-------------------------|
--5----5--5--5--5--5--5--|--5----5--5--8----8--8--|--3----3--3--3--3--3--3--|


  Q    E  E  E  E  E  E     E  E  E  E  E  E  E  E     E  E  E  E  E  E  E  E   
-------------------------|--------------------------|--------------------------|
-------------------------|--------------------------|--------------------------|
-------------------------|--------------------------|--------------------------|
--2----2--2--2--2--3--3--|--0--0--0--0--0--0--0--0--|--0--5--5--5--5--5--5--5--|


  E  E  E  E  E  E  E  E     E  E  E  E  E  E  E  E   
--------------------------|--------------------------|
--------------------------|--------------------------|
--------------------------|--------------------------|
--0--0--0--0--0--0--0--0--|--7--7--7--7--7--7--7--7--|


  E  E  E  E  E  E  E  E     E  E  E  E  E  E  E  E     E   
--------------------------|--------------------------|-----|
--------------------------|--------------------------|-----|
--------------------------|--------------------------|-----|
--0--0--0--0--0--0--0--0--|--0--5--5--5--5--5--5--5--|--7--|


  E  E  E  E  E  E  E  E     E  E  E  E     E  E  E  E  E  E  E  E   
--------------------------|--------------|--------------------------|
--------------------------|--------------|--------------------------|
--------------------------|--------------|--------------------------|
--8--8--8--8--8--8--8--8--|--0--0--0--0--|--0--5--5--5--5--5--5--5--|


  E  E  E  E  E  E  E  E     E  E  E  E  E  E  E  E     E   
--------------------------|--------------------------|-----|
--------------------------|--------------------------|-----|
--------------------------|--------------------------|-----|
--0--0--0--0--0--0--0--0--|--7--7--7--7--7--7--7--7--|--0--|


  E  E  E  E  E  E  E  E     E  E  E  E  E  E  E  E   
--------------------------|--------------------------|
--------------------------|--------------------------|
--------------------------|--------------------------|
--0--5--5--5--5--5--5--5--|--7--7--7--7--7--7--7--7--|


  E  E  E  E  E  E  E  E                             Q    Q    Q    E   
--------------------------|-------|-------|-------|--------------------|
--------------------------|-------|-------|-------|--------------------|
--------------------------|-------|-------|-------|--------------------|
--8--8--8--8--8--8--8--8--|-------|-------|-------|-----------------0--|


  W                   W                   W                 
-------------------|-------------------|-------------------|
-------------------|-------------------|-------------------|
-------------------|-------------------|-------------------|
--0----------------|--L----------------|--L----------------|


  E  E  E  E  E  E  E  E       Q    E  E  E  E  E  E   
--------------------------||--------------------------|
--------------------------||*-------------------------|
--------------------------||*-------------------------|
--6--0--5--0--0--1--3--0--||---1----0--0--0--0--0--0--|


  Q    E  E  E  E  E  E     Q    E  E  E  E  E  E   
-------------------------|-------------------------|
-------------------------|-------------------------|
-------------------------|-------------------------|
--3----0--0--0--0--0--0--|--1----0--0--0--0--0--0--|


  E  E  E  E  E  E  E  E       E  E  E  E  E  E  E  E   
---------------------------||--------------------------|
--------------------------*||--------------------------|
--------------------------*||--------------------------|
--0--6--0--5--0--0--1--3---||--0--6--0--5--0--0--1--3--|


    Q    E  E  E  E  E  E     E  E  E  E  E  E  E  E   
|--------------------------|--------------------------|
|*-------------------------|--------------------------|
|*--5----6--5--------------|-----6-----5--------------|
|--------------0--0--0--0--|--0-----0-----0--0--1--3--|


  Q    E  E  E  E  E  E     E  E  E  E  E  E  E  E     
-------------------------|---------------------------||
-------------------------|--------------------------*||
--5----6--5--------------|--------------------------*||
-------------0--0--0--0--|--0--6--0--5--0--0--1--3---||


  E  E  E  E  E  E  E  E       Q    E  E  E  E  E  E   
--------------------------||--------------------------|
--------------------------||*-------------------------|
--------------------------||*-------------------------|
--0--6--0--5--0--0--1--3--||---1----0--0--0--0--0--0--|


  Q    E  E  E  E  E  E     Q    E  E  E  E  E  E   
-------------------------|-------------------------|
-------------------------|-------------------------|
-------------------------|-------------------------|
--3----0--0--0--0--0--0--|--1----0--0--0--0--0--0--|


  E  E  E  E  E  E  E  E                       Q    E  E  E  E  E  E   
---------------------------||-------|-------|-------------------------|
--------------------------*||-------|-------|-------------------------|
--------------------------*||-------|-------|-------------------------|
--0--6--0--5--0--0--1--3---||-------|-------|--1----1--1--1--1--1--1--|


  Q    E  E  E  E  E  E     Q    E  E  E  E  E  E     Q    E  E  Q    E  E   
-------------------------|-------------------------|------------------------|
-------------------------|-------------------------|------------------------|
-------------------------|-------------------------|------------------------|
--3----3--3--3--2--3--3--|--5----5--5--5--5--5--5--|--5----5--5--8----8--8--|


  Q    E  E  E  E  E  E     Q    E  E  E  E  E  E     Q    E  E  E  E  E  E   
-------------------------|-------------------------|-------------------------|
-------------------------|-------------------------|-------------------------|
-------------------------|-------------------------|-------------------------|
--3----3--3--3--3--3--3--|--2----2--2--2--2--3--3--|--5----5--5--5--5--5--5--|


  Q    E  E  Q    E  E     Q    E  E  E  E  E  E     Q    E  E  E  E  E  E   
------------------------|-------------------------|-------------------------|
------------------------|-------------------------|-------------------------|
------------------------|-------------------------|-------------------------|
--5----5--5--8----8--8--|--1----1--1--1--1--1--1--|--3----3--3--3--2--3--3--|


  Q    E  E  E  E  E  E     Q    E  E  Q    E  E     Q    E  E  E  E  E  E   
-------------------------|------------------------|-------------------------|
-------------------------|------------------------|-------------------------|
-------------------------|------------------------|-------------------------|
--5----5--5--5--5--5--5--|--5----5--5--8----8--8--|--3----3--3--3--3--3--3--|


  Q    E  E  E  E  E  E     E  E  E  E  E  E  E  E     E  E  E  E  E  E  E  E   
-------------------------|--------------------------|--------------------------|
-------------------------|--------------------------|--------------------------|
-------------------------|--------------------------|--------------------------|
--2----2--2--2--2--3--3--|--0--0--0--0--0--0--0--0--|--0--5--5--5--5--5--5--5--|


  E  E  E  E  E  E  E  E     E  E  E  E  E  E  E  E   
--------------------------|--------------------------|
--------------------------|--------------------------|
--------------------------|--------------------------|
--0--0--0--0--0--0--0--0--|--7--7--7--7--7--7--7--7--|


  E  E  E  E  E  E  E  E     E  E  E  E  E  E  E  E   
--------------------------|--------------------------|
--------------------------|--------------------------|
--------------------------|--------------------------|
--0--0--0--0--0--0--0--0--|--0--5--5--5--5--5--5--5--|


  E  E  E  E  E  E  E  E     E  E  E  E  E  E  E  E   
--------------------------|--------------------------|
--------------------------|--------------------------|
--------------------------|--------------------------|
--7--7--7--7--7--7--7--7--|--8--8--8--8--8--8--8--8--|


  E  E  E  E  E  E  E  E     E  E  E  E  E  E  E  E   
--------------------------|--------------------------|
--------------------------|--------------------------|
--------------------------|--------------------------|
--0--0--0--0--0--0--0--0--|--0--5--5--5--5--5--5--5--|


  E  E  E  E  E  E  E  E     E  E  E  E  E  E  E  E   
--------------------------|--------------------------|
--------------------------|--------------------------|
--------------------------|--------------------------|
--0--0--0--0--0--0--0--0--|--7--7--7--7--7--7--7--7--|


  E  E  E  E  E  E  E  E     E  E  E  E  E  E  E  E   
--------------------------|--------------------------|
--------------------------|--------------------------|
--------------------------|--------------------------|
--0--0--0--0--0--0--0--0--|--0--5--5--5--5--5--5--5--|


  E  E  E  E  E  E  E  E     E     W                   W                 
--------------------------|-----|-------------------|-------------------|
--------------------------|-----|-------------------|-------------------|
--------------------------|-----|-------------------|-------------------|
--7--7--7--7--7--7--7--7--|--8--|--0----------------|--L----------------|


  W                   H.           E  E     W                 
-------------------|---------------------|-------------------|
-------------------|---------------------|-------------------|
-------------------|---------------------|-------------------|
--L----------------|--L------------0-----|--5----------------|


  W                   W                   H        E   
-------------------|-------------------|--------------|
-------------------|-------------------|--------------|
-------------------|-------------------|--------------|
--L----------------|--3----------------|--L--------0--|


    E  E  E  E  E  E  E  E     E  E  E  E  E  E  E  E   
|---------------------------|--------------------------|
|*--------------------------|--------------------------|
|*--6--5--------------6--5--|--------------------------|
|---------8--6--5--6--------|--0--8--0--6--0--0--1--0--|


  E  E  E  E  E  E  E  E     E  E  E  E  E  E  E  E     
--------------------------|---------------------------||
--------------------------|--------------------------*||
--6--5--------------6--5--|--------------------------*||
--------8--6--5--6--------|--0--8--0--6--0--0--1--0---||


   Q    E  E  E  E  E  E     Q    E  E  E  E  E  E     Q    E  E  E  E  E  E   
--------------------------|-------------------------|-------------------------|
*-------------------------|-------------------------|-------------------------|
*-------------------------|-------------------------|-------------------------|
---1----0--0--0--0--0--0--|--3----0--0--0--0--0--0--|--1----0--0--0--0--0--0--|


  E  E  E  E  E  E  E  E       E  E  E  E  E  E  E  E   
---------------------------||--------------------------|
--------------------------*||--------------------------|
--------------------------*||--------------------------|
--0--6--0--5--0--0--1--3---||--0--6--0--5--0--0--1--3--|


  Q    E  E  E  E  E  E     E  E  E  E  E  E  E  E     E  E  E  E  E  E  E  E   
-------------------------|--------------------------|--------------------------|
-------------------------|--------------------------|--------------------------|
--6----5--------------6--|--5-----------------------|-----6--5--------------6--|
----------8--6--5--6-----|-----0--8--0--6--0--0--1--|--0--------8--6--5--6-----|


  E  E  E  E  E  E  E  E     E  E  E  E  E  E  E  E   
--------------------------|--------------------------|
--------------------------|--------------------------|
--5-----------------------|-----6--5--------------6--|
-----0--8--0--6--0--0--1--|--0--------8--6--5--6-----|


  E  E  E  E  E  E  E  E     E  E  E  E  E  E  E  E   
--------------------------|--------------------------|
--------------------------|--------------------------|
--5-----------------------|-----6--5--------------6--|
-----0--8--0--6--0--0--1--|--0--------8--6--5--6-----|


  E  E  E  E  E  E  E  E       Q    E  E  E  E  E  E   
--------------------------||--------------------------|
--------------------------||*-------------------------|
--5-----------------------||*-------------------------|
-----0--8--0--6--0--0--1--||---1----0--0--0--0--0--0--|


  Q    E  E  E  E  E  E     Q    E  E  E  E  E  E   
-------------------------|-------------------------|
-------------------------|-------------------------|
-------------------------|-------------------------|
--3----0--0--0--0--0--0--|--1----0--0--0--0--0--0--|


  E  E  E  E  E  E  E  E                                     
---------------------------||-------|-------|-------|-------|
--------------------------*||-------|-------|-------|-------|
--------------------------*||-------|-------|-------|-------|
--0--6--0--5--0--0--1--3---||-------|-------|-------|-------|


  Q    E  E  E  E  E  E     Q    E  E  Q    E  E     Q    E  E  E  E  E  E   
-------------------------|------------------------|-------------------------|
-------------------------|------------------------|-------------------------|
-------------------------|------------------------|-------------------------|
--5----5--5--5--5--5--5--|--5----5--5--8----8--8--|--3----3--3--3--3--3--3--|


  Q    E  E  E  E  E  E     Q    E  E  E  E  E  E     Q    E  E  Q    E  E   
-------------------------|-------------------------|------------------------|
-------------------------|-------------------------|------------------------|
-------------------------|-------------------------|------------------------|
--2----2--2--2--2--3--3--|--5----5--5--5--5--5--5--|--5----5--5--8----8--8--|


  Q    E  E  E  E  E  E     Q    E  E  E  E  E  E     Q    E  E  E  E  E  E   
-------------------------|-------------------------|-------------------------|
-------------------------|-------------------------|-------------------------|
-------------------------|-------------------------|-------------------------|
--1----1--1--1--1--1--1--|--3----3--3--3--2--3--3--|--5----5--5--5--5--5--5--|


  Q    E  E  Q    E  E     Q    E  E  E  E  E  E     Q    E  E  E  E  E  E   
------------------------|-------------------------|-------------------------|
------------------------|-------------------------|-------------------------|
------------------------|-------------------------|-------------------------|
--5----5--5--8----8--8--|--3----3--3--3--3--3--3--|--2----2--2--2--2--3--3--|


  E    
-----||
-----||
-----||
--0--||




Duration Legend
---------------
W - whole
H - half
Q - quarter
E - 8th
S - 16th
T - 32nd
X - 64th
. - note dotted
|-n-|  - n-tuplets


Tablature Legend
----------------
L - tied note
x - dead note
g - grace note
(n) - ghost note
> - accentuded note
NH - natural harmonic
AH - artificial harmonic
TH - tapped harmonic
SH - semi harmonic
PH - pitch harmonic
h - hammer on
p - pull off
b - bend
br - bendRelease
pb - preBend
pbr - preBendRelease
brb - bendReleaseBend
\n/ - tremolo bar dip
\n - tremolo bar dive
-/n - tremolo bar Release up
/n\ - tremolo bar inverted dip
/n - tremolo bar return
-\n - tremolo bar Release down
S - shift slide
s - legato slide
/ -  slide into from below or out of upwards
\ -  slide into from above or out of downwards
~ - vibrato
W - wide vibrato
tr - trill
TP - tremolo picking
T - tapping
S - slap
P - pop
< - fade in
^ - brush up
v - brush down





Comments


Popular Heaven Shall Burn tabs & chords
Profane Believers Bass Tabs
Stay The Course 2 Bass Tabs
Voice Of The Voiceless 2 Bass Tabs
Black Tears Tabs
Endzeit Tabs
Forlorn Skies Tabs
Like A Thousand Suns Tabs
Profane Believers Tabs
Quest For Resistance Tabs
Voice Of The Voiceless Tabs


Song lyrics



↑ Back to top | Tablatures and chords are parodies/interpretations of the original songs. You may use it for private study, scholarship, research or language learning purposes only
© 2014 AZChords.com Contact us | Privacy policy | DMCA | Add/correct tabs | Request tabs | Top 50 tabs