>
 >
Stay The Course

Stay The Course Guitar Tabs

Heaven Shall Burn - Stay The Course chords, tabs, tablatures, lyrics

Guitar lessons | Add/correct | Request | Top 50 tabs Artists:  A B C D E F G H I J K L M N O P Q R S T U V W X Y Z 0-9

Stay The Course Guitar Tabs – Heaven Shall Burn

CD, Sheet music, Poster

Do you like Stay The Course? Share with your friends now
Bass TabsBass Tabs v2Tabs
Raita 1
     E  E  E  E  E  E  E  E     E  E  E  E  E  E  E  E   
E||--------------------------|--------------------------|
C||--------------------------|--------------------------|
G||--------------------------|--------------------------|
C||--------------------------|--------------------------|
G||--5-----------8--7--5-----|-----5--------8-----7-----|
C||-----0--0--0-----------0--|--0-----5--5-----5-----5--|


  E  E  E  E  E  E  E  E     E  E  E  E   E  E  E  E   
--------------------------|---------------------------|
--------------------------|---------------------------|
--------------------------|---------------------------|
--------------------------|---------------------------|
--5-----------8--7--5-----|--7-----------10--8--7-----|
-----0--0--0-----------0--|-----7--7--7------------7--|


  E  E  E  E  E  E  E  E     E  E  E  E  E  E  E  E   
--------------------------|--------------------------|
--------------------------|--------------------------|
--------------------------|--------------------------|
--------------------------|--------------------------|
--5-----------8--7--5-----|-----5--------8-----7-----|
-----0--0--0-----------0--|--0-----5--5-----5-----5--|


  E  E   E  E  E  E  E  E     E  E  E  E   E   E  E  E   
---------------------------|----------------------------|
---------------------------|----------------------------|
---------------------------|----------------------------|
---------------------------|----------------------------|
--7-----10--8-----7--------|--8-----------12--10--8-----|
-----7---------7-----7--7--|-----8--8--8-------------8--|


  E  E  E  E  E  E  E  E     E  E  E  E  E  E  E  E   
--------------------------|--------------------------|
--------------------------|--------------------------|
--------------------------|--------------------------|
--------------------------|--------------------------|
--5-----------8--7--5-----|-----5--------8-----7-----|
-----0--0--0-----------0--|--0-----5--5-----5-----5--|


  E  E  E  E  E  E  E  E     E  E  E  E   E  E  E  E   
--------------------------|---------------------------|
--------------------------|---------------------------|
--------------------------|---------------------------|
--------------------------|---------------------------|
--5-----------8--7--5-----|--7-----------10--8--7-----|
-----0--0--0-----------0--|-----7--7--7------------7--|


  E  E  E  E  E  E  E  E     E  E  E  E  E  E  E  E   
--------------------------|--------------------------|
--------------------------|--------------------------|
--------------------------|--------------------------|
--------------------------|--------------------------|
--5-----------8--7--5-----|-----5--------8-----7-----|
-----0--0--0-----------0--|--0-----5--5-----5-----5--|


  E  E   E  E  E  E  E  E     E  E  E  E   E   E  E  E   
---------------------------|----------------------------|
---------------------------|----------------------------|
---------------------------|----------------------------|
---------------------------|----------------------------|
--7-----10--8-----7--------|--8-----------12--10--8-----|
-----7---------7-----7--7--|-----8--8--8-------------8--|


       PM PM PM PM PM PM            PM         PM            PM PM PM PM PM  
  Q    E  E  E  E  E  E     Q    E  E  Q    E  E     Q    E  E  E  E  E  E   
-------------------------|------------------------|-------------------------|
-------------------------|------------------------|-------------------------|
-------------------------|------------------------|-------------------------|
--5----------------------|--5----5-----8----8-----|--1----1-----------------|
--5----5--5--5--5--5--5--|--5----5--5--8----8--8--|--1----1--1--1--1--1--1--|
--5----5--5--5--5--5--5--|--5----5--5--8----8--8--|--1----1--1--1--1--1--1--|


          PM PM                  PM PM PM PM PM PM            PM         PM  
  Q    E  E  E  E  E  E     Q    E  E  E  E  E  E     Q    E  E  Q    E  E   
-------------------------|-------------------------|------------------------|
-------------------------|-------------------------|------------------------|
-------------------------|-------------------------|------------------------|
--3----3--------2--3--3--|--5----------------------|--5----5-----8----8-----|
--3----3--3--3--2--3--3--|--5----5--5--5--5--5--5--|--5----5--5--8----8--8--|
--3----3--3--3--2--3--3--|--5----5--5--5--5--5--5--|--5----5--5--8----8--8--|


          PM PM PM PM PM            PM PM                                     
  Q    E  E  E  E  E  E     Q    E  E  E  E  E  E     Q    E  E  E  E  E  E   
-------------------------|-------------------------|-------------------------|
-------------------------|-------------------------|-------------------------|
-------------------------|-------------------------|--5----7--0--0--0--0--0--|
--3----3-----------------|--2----2--------2--3--3--|-------------------------|
--3----3--3--3--3--3--3--|--2----2--2--2--2--3--3--|-------------------------|
--3----3--3--3--3--3--3--|--2----2--2--2--2--3--3--|-------------------------|


                                    PM PM PM PM PM    PM PM                    
  Q    E  E   Q    E  E     Q    E  E  E  E  E  E     E  E  E  E  E  E  E  E   
-------------------------|-------------------------|--------------------------|
-------------------------|-------------------------|--------------------------|
--5----7--0--10----7--0--|--2----3--3--3--3--3--3--|--3--3--7--0--0--7--5--3--|
-------------------------|-------------------------|--------------------------|
-------------------------|-------------------------|--------------------------|
-------------------------|-------------------------|--------------------------|


                                                             PM PM PM PM PM  
  Q    E  E  E  E  E  E     Q    E  E  Q    E  E     Q    E  E  E  E  E  E   
-------------------------|------------------------|-------------------------|
-------------------------|------------------------|-------------------------|
--5----7--0--0--0--0--0--|--5----7--0--3----5--0--|--2----3--3--3--3--3--3--|
-------------------------|------------------------|-------------------------|
-------------------------|------------------------|-------------------------|
-------------------------|------------------------|-------------------------|


  Q    E  E  Q    E  E     E  E  E  E  E  E  E  E     E  E  E  E  E  E  E  E   
------------------------|--------------------------|--------------------------|
------------------------|--------------------------|--------------------------|
--7----5--3--5----3--2--|--------------------------|--------------------------|
------------------------|--------------------------|--------------------------|
------------------------|--5-----------8--7--5-----|-----5--------8-----7-----|
------------------------|-----0--0--0-----------0--|--0-----5--5-----5-----5--|


  E  E  E  E  E  E  E  E     E  E  E  E   E  E  E  E   
--------------------------|---------------------------|
--------------------------|---------------------------|
--------------------------|---------------------------|
--------------------------|---------------------------|
--5-----------8--7--5-----|--7-----------10--8--7-----|
-----0--0--0-----------0--|-----7--7--7------------7--|


  E  E  E  E  E  E  E  E     E  E  E  E  E  E  E  E   
--------------------------|--------------------------|
--------------------------|--------------------------|
--------------------------|--------------------------|
--------------------------|--------------------------|
--5-----------8--7--5-----|-----5--------8-----7-----|
-----0--0--0-----------0--|--0-----5--5-----5-----5--|


  E  E   E  E  E  E  E  E     E  E  E  E   E   E  E  E   
---------------------------|----------------------------|
---------------------------|----------------------------|
---------------------------|----------------------------|
---------------------------|----------------------------|
--7-----10--8-----7--------|--8-----------12--10--8-----|
-----7---------7-----7--7--|-----8--8--8-------------8--|


  S S S S S S S S E  E  E  E     E  E  E  E  E  E  E  E   
------------------------------|--------------------------|
------------------------------|--------------------------|
------------------------------|--------------------------|
------------------------------|--------------------------|
------------------8--7--5-----|-----5--------8-----7-----|
--0---0-0-0---0------------0--|--0-----5--5-----5-----5--|


  E  E  E  E  E  E  E  E     E  E  E  E   E  E  E  E   
--------------------------|---------------------------|
--------------------------|---------------------------|
--------------------------|---------------------------|
--------------------------|---------------------------|
--5-----------8--7--5-----|--7-----------10--8--7-----|
-----0--0--0-----------0--|-----7--7--7------------7--|


  E  E  E  E  E  E  E  E     E  E  E  E  E  E  E  E   
--------------------------|--------------------------|
--------------------------|--------------------------|
--------------------------|--------------------------|
--------------------------|--------------------------|
--5-----------8--7--5-----|-----5--------8-----7-----|
-----0--0--0-----------0--|--0-----5--5-----5-----5--|


  E  E   E  E  E  E  E  E     E  E  E  E   E   E  E  E                   
---------------------------|----------------------------|-------|-------|
---------------------------|----------------------------|-------|-------|
---------------------------|----------------------------|-------|-------|
---------------------------|----------------------------|-------|-------|
--7-----10--8-----7--------|--8-----------12--10--8-----|-------|-------|
-----7---------7-----7--7--|-----8--8--8-------------8--|-------|-------|


          H.           E  E     W                   W                 
-------|---------------------|-------------------|-------------------|
-------|---------------------|-------------------|-------------------|
-------|---------------------|-------------------|-------------------|
-------|---------------------|-------------------|-------------------|
-------|---------------0-----|--0----------------|--L----------------|
-------|---------------0-----|--0----------------|--L----------------|


                         PM    PM          PM              PM PM PM PM     
  W                   E  E  E  E  E  E  E  E       Q    E  E  E  E  E  E   
-------------------|--------------------------||--------------------------|
-------------------|--------------------------||--------------------------|
-------------------|--------------------------||*-------------------------|
-------------------|--------------------------||*-------------------------|
--L----------------|--6-----5-----0--1--3-----||---1----0-----------------|
--L----------------|--6--0--5--0--0--1--3--0--||---1----0--0--0--0--0--0--|


                                          PM PM PM PM PM  
  Q    S S S S S S S S S S S S    Q    E  E  E  E  E  E   
-------------------------------|-------------------------|
-------------------------------|-------------------------|
-------------------------------|-------------------------|
-------------------------------|-------------------------|
--3----------------------------|--1----0-----------------|
--3----0---0-0-0---0-0-0---0---|--1----0--0--0--0--0--0--|


  PM    PM    PM               PM    PM    PM           
  E  E  E  E  E  E  E  E       E  E  E  E  E  E  E  E   
---------------------------||--------------------------|
---------------------------||--------------------------|
--------------------------*||--------------------------|
--------------------------*||--------------------------|
-----6-----5-----0--1--3---||-----6-----5-----0--1--3--|
--0--6--0--5--0--0--1--3---||--0--6--0--5--0--0--1--3--|


                                         PM    PM           
    Q    E  E  S S S S S S S S    S S E  E  E  E  E  E  E   
|------------------------------|---------------------------|
|------------------------------|---------------------------|
|*-----------------------------|---------------------------|
|*-----------------------------|---------------------------|
|---5----6--5------------------|------6-----5--------------|
|--------------0---0-0-0---0---|--0------0-----0--0--1--3--|


                                       PM    PM             
  Q    E  E  S S S S S S S S    S S E  E  E  E  E  E  E     
-----------------------------|----------------------------||
-----------------------------|----------------------------||
-----------------------------|---------------------------*||
-----------------------------|---------------------------*||
--5----6--5------------------|----------------------------||
-------------0---0-0-0---0---|--0---6--0--5--0--0--1--3---||


         PM    PM                       PM PM PM PM     
  S S E  E  E  E  E  E  E       Q    E  E  E  E  E  E   
---------------------------||--------------------------|
---------------------------||--------------------------|
---------------------------||*-------------------------|
---------------------------||*-------------------------|
---------------------------||---1----0-----------------|
--0---6--0--5--0--0--1--3--||---1----0--0--0--0--0--0--|


                                          PM PM PM PM PM  
  Q    S S S S S S S S S S S S    Q    E  E  E  E  E  E   
-------------------------------|-------------------------|
-------------------------------|-------------------------|
-------------------------------|-------------------------|
-------------------------------|-------------------------|
--3----------------------------|--1----0-----------------|
--3----0---0-0-0---0-0-0---0---|--1----0--0--0--0--0--0--|


  PM    PM    PM                    PM PM PM PM PM PM            PM         PM  
  E  E  E  E  E  E  E  E       Q    E  E  E  E  E  E     Q    E  E  Q    E  E   
---------------------------||-------------------------|------------------------|
---------------------------||-------------------------|------------------------|
--------------------------*||-------------------------|------------------------|
--------------------------*||--5----------------------|--5----5-----8----8-----|
-----6-----5-----0--1--3---||--5----5--5--5--5--5--5--|--5----5--5--8----8--8--|
--0--6--0--5--0--0--1--3---||--5----5--5--5--5--5--5--|--5----5--5--8----8--8--|


          PM PM PM PM PM            PM PM                  PM PM PM PM PM PM  
  Q    E  E  E  E  E  E     Q    E  E  E  E  E  E     Q    E  E  E  E  E  E   
-------------------------|-------------------------|-------------------------|
-------------------------|-------------------------|-------------------------|
-------------------------|-------------------------|-------------------------|
--1----1-----------------|--3----3--------2--3--3--|--5----------------------|
--1----1--1--1--1--1--1--|--3----3--3--3--2--3--3--|--5----5--5--5--5--5--5--|
--1----1--1--1--1--1--1--|--3----3--3--3--2--3--3--|--5----5--5--5--5--5--5--|


          PM         PM            PM PM PM PM PM            PM PM           
  Q    E  E  Q    E  E     Q    E  E  E  E  E  E     Q    E  E  E  E  E  E   
------------------------|-------------------------|-------------------------|
------------------------|-------------------------|-------------------------|
------------------------|-------------------------|-------------------------|
--5----5-----8----8-----|--3----3-----------------|--2----2--------2--3--3--|
--5----5--5--8----8--8--|--3----3--3--3--3--3--3--|--2----2--2--2--2--3--3--|
--5----5--5--8----8--8--|--3----3--3--3--3--3--3--|--2----2--2--2--2--3--3--|


                                                              PM PM PM PM PM  
  Q    E  E  E  E  E  E     Q    E  E   Q    E  E     Q    E  E  E  E  E  E   
-------------------------|-------------------------|-------------------------|
-------------------------|-------------------------|-------------------------|
--5----7--0--0--0--0--0--|--5----7--0--10----7--0--|--2----3--3--3--3--3--3--|
-------------------------|-------------------------|-------------------------|
-------------------------|-------------------------|-------------------------|
-------------------------|-------------------------|-------------------------|


  PM PM                                                                       
  E  E  E  E  E  E  E  E     Q    E  E  E  E  E  E     Q    E  E  Q    E  E   
--------------------------|-------------------------|------------------------|
--------------------------|-------------------------|------------------------|
--3--3--7--0--0--7--5--3--|--5----7--0--0--0--0--0--|--5----7--0--3----5--0--|
--------------------------|-------------------------|------------------------|
--------------------------|-------------------------|------------------------|
--------------------------|-------------------------|------------------------|


          PM PM PM PM PM                                                      
  Q    E  E  E  E  E  E     Q    E  E  Q    E  E     E  E  E  E  E  E  E  E   
-------------------------|------------------------|--------------------------|
-------------------------|------------------------|--------------------------|
--2----3--3--3--3--3--3--|--7----5--3--5----3--2--|--------------------------|
-------------------------|------------------------|--------------------------|
-------------------------|------------------------|--5-----------8--7--5-----|
-------------------------|------------------------|-----0--0--0-----------0--|


  E  E  E  E  E  E  E  E     E  E  E  E  E  E  E  E   
--------------------------|--------------------------|
--------------------------|--------------------------|
--------------------------|--------------------------|
--------------------------|--------------------------|
-----5--------8-----7-----|--5-----------8--7--5-----|
--0-----5--5-----5-----5--|-----0--0--0-----------0--|


  E  E  E  E   E  E  E  E     E  E  E  E  E  E  E  E   
---------------------------|--------------------------|
---------------------------|--------------------------|
---------------------------|--------------------------|
---------------------------|--------------------------|
--7-----------10--8--7-----|--5-----------8--7--5-----|
-----7--7--7------------7--|-----0--0--0-----------0--|


  E  E  E  E  E  E  E  E     E  E   E  E  E  E  E  E   
--------------------------|---------------------------|
--------------------------|---------------------------|
--------------------------|---------------------------|
--------------------------|---------------------------|
-----5--------8-----7-----|--7-----10--8-----7--------|
--0-----5--5-----5-----5--|-----7---------7-----7--7--|


  E  E  E  E   E   E  E  E     S S S S S S S S E  E  E  E   
----------------------------|------------------------------|
----------------------------|------------------------------|
----------------------------|------------------------------|
----------------------------|------------------------------|
--8-----------12--10--8-----|------------------8--7--5-----|
-----8--8--8-------------8--|--0---0-0-0---0------------0--|


  E  E  E  E  E  E  E  E     E  E  E  E  E  E  E  E   
--------------------------|--------------------------|
--------------------------|--------------------------|
--------------------------|--------------------------|
--------------------------|--------------------------|
-----5--------8-----7-----|--5-----------8--7--5-----|
--0-----5--5-----5-----5--|-----0--0--0-----------0--|


  E  E  E  E   E  E  E  E     E  E  E  E  E  E  E  E   
---------------------------|--------------------------|
---------------------------|--------------------------|
---------------------------|--------------------------|
---------------------------|--------------------------|
--7-----------10--8--7-----|--5-----------8--7--5-----|
-----7--7--7------------7--|-----0--0--0-----------0--|


  E  E  E  E  E  E  E  E     E  E   E  E  E  E  E  E   
--------------------------|---------------------------|
--------------------------|---------------------------|
--------------------------|---------------------------|
--------------------------|---------------------------|
-----5--------8-----7-----|--7-----10--8-----7--------|
--0-----5--5-----5-----5--|-----7---------7-----7--7--|


  E  E  E  E   E   E  E  E     W                   W                 
----------------------------|-------------------|-------------------|
----------------------------|-------------------|-------------------|
----------------------------|-------------------|-------------------|
----------------------------|-------------------|-------------------|
--8-----------12--10--8-----|--0----------------|--L----------------|
-----8--8--8-------------8--|--0----------------|--L----------------|


  W                   H.           E  E     W                 
-------------------|---------------------|-------------------|
-------------------|---------------------|-------------------|
-------------------|---------------------|-------------------|
-------------------|---------------------|-------------------|
--L----------------|--L------------0-----|--5----------------|
--L----------------|--L------------0-----|--5----------------|


  W                   W                   H        E   
-------------------|-------------------|--------------|
-------------------|-------------------|--------------|
-------------------|-------------------|--------------|
-------------------|-------------------|--------------|
--L----------------|--3----------------|--L--------0--|
--L----------------|--3----------------|--L--------0--|


          PM PM PM PM          PM    PM    PM           
    E  E  E  E  E  E  E  E     E  E  E  E  E  E  E  E   
|---------------------------|--------------------------|
|---------------------------|--------------------------|
|*--------------------------|--------------------------|
|*--------------------------|--------------------------|
|---6--5--------------6--5--|--------------------------|
|---------8--6--5--6--------|--0--8--0--6--0--0--1--0--|


        PM PM PM PM          PM    PM    PM             
  E  E  E  E  E  E  E  E     E  E  E  E  E  E  E  E     
--------------------------|---------------------------||
--------------------------|---------------------------||
--------------------------|--------------------------*||
--------------------------|--------------------------*||
--6--5--------------6--5--|---------------------------||
--------8--6--5--6--------|--0--8--0--6--0--0--1--0---||


           PM PM PM PM                                     
   Q    E  E  E  E  E  E     Q    S S S S S S S S S S S S  
--------------------------|-------------------------------|
--------------------------|-------------------------------|
*-------------------------|-------------------------------|
*-------------------------|-------------------------------|
---1----0-----------------|--3----------------------------|
---1----0--0--0--0--0--0--|--3----0---0-0-0---0-0-0---0---|


          PM PM PM PM PM    PM    PM    PM             
  Q    E  E  E  E  E  E     E  E  E  E  E  E  E  E     
-------------------------|---------------------------||
-------------------------|---------------------------||
-------------------------|--------------------------*||
-------------------------|--------------------------*||
--1----0-----------------|-----6-----5-----0--1--3---||
--1----0--0--0--0--0--0--|--0--6--0--5--0--0--1--3---||


  PM    PM    PM                     PM PM PM PM          PM    PM    PM        
  E  E  E  E  E  E  E  E     Q    E  E  E  E  E  E     E  E  E  E  E  E  E  E   
--------------------------|-------------------------|--------------------------|
--------------------------|-------------------------|--------------------------|
--------------------------|-------------------------|--------------------------|
--------------------------|-------------------------|--------------------------|
-----6-----5-----0--1--3--|--6----5--------------6--|--5-----------------------|
--0--6--0--5--0--0--1--3--|----------8--6--5--6-----|-----0--8--0--6--0--0--1--|


           PM PM PM PM          PM    PM    PM        
  E  E  E  E  E  E  E  E     E  E  E  E  E  E  E  E   
--------------------------|--------------------------|
--------------------------|--------------------------|
--------------------------|--------------------------|
--------------------------|--------------------------|
-----6--5--------------6--|--5-----------------------|
--0--------8--6--5--6-----|-----0--8--0--6--0--0--1--|


           PM PM PM PM          PM    PM    PM        
  E  E  E  E  E  E  E  E     E  E  E  E  E  E  E  E   
--------------------------|--------------------------|
--------------------------|--------------------------|
--------------------------|--------------------------|
--------------------------|--------------------------|
-----6--5--------------6--|--5-----------------------|
--0--------8--6--5--6-----|-----0--8--0--6--0--0--1--|


           PM PM PM PM          PM    PM    PM        
  E  E  E  E  E  E  E  E     E  E  E  E  E  E  E  E   
--------------------------|--------------------------|
--------------------------|--------------------------|
--------------------------|--------------------------|
--------------------------|--------------------------|
-----6--5--------------6--|--5-----------------------|
--0--------8--6--5--6-----|-----0--8--0--6--0--0--1--|


            PM PM PM PM                                     
    Q    E  E  E  E  E  E     Q    S S S S S S S S S S S S  
|--------------------------|-------------------------------|
|--------------------------|-------------------------------|
|*-------------------------|-------------------------------|
|*-------------------------|-------------------------------|
|---1----0-----------------|--3----------------------------|
|---1----0--0--0--0--0--0--|--3----0---0-0-0---0-0-0---0---|


          PM PM PM PM PM    PM    PM    PM             
  Q    E  E  E  E  E  E     E  E  E  E  E  E  E  E     
-------------------------|---------------------------||
-------------------------|---------------------------||
-------------------------|--------------------------*||
-------------------------|--------------------------*||
--1----0-----------------|-----6-----5-----0--1--3---||
--1----0--0--0--0--0--0--|--0--6--0--5--0--0--1--3---||


       PM PM PM PM PM PM            PM         PM            PM PM PM PM PM  
  Q    E  E  E  E  E  E     Q    E  E  Q    E  E     Q    E  E  E  E  E  E   
-------------------------|------------------------|-------------------------|
-------------------------|------------------------|-------------------------|
-------------------------|------------------------|-------------------------|
--5----------------------|--5----5-----8----8-----|--1----1-----------------|
--5----5--5--5--5--5--5--|--5----5--5--8----8--8--|--1----1--1--1--1--1--1--|
--5----5--5--5--5--5--5--|--5----5--5--8----8--8--|--1----1--1--1--1--1--1--|


          PM PM                  PM PM PM PM PM PM            PM         PM  
  Q    E  E  E  E  E  E     Q    E  E  E  E  E  E     Q    E  E  Q    E  E   
-------------------------|-------------------------|------------------------|
-------------------------|-------------------------|------------------------|
-------------------------|-------------------------|------------------------|
--3----3--------2--3--3--|--5----------------------|--5----5-----8----8-----|
--3----3--3--3--2--3--3--|--5----5--5--5--5--5--5--|--5----5--5--8----8--8--|
--3----3--3--3--2--3--3--|--5----5--5--5--5--5--5--|--5----5--5--8----8--8--|


          PM PM PM PM PM            PM PM                                     
  Q    E  E  E  E  E  E     Q    E  E  E  E  E  E     Q    E  E  E  E  E  E   
-------------------------|-------------------------|-------------------------|
-------------------------|-------------------------|-------------------------|
-------------------------|-------------------------|--5----7--0--0--0--0--0--|
--3----3-----------------|--2----2--------2--3--3--|-------------------------|
--3----3--3--3--3--3--3--|--2----2--2--2--2--3--3--|-------------------------|
--3----3--3--3--3--3--3--|--2----2--2--2--2--3--3--|-------------------------|


                                    PM PM PM PM PM    PM PM                    
  Q    E  E   Q    E  E     Q    E  E  E  E  E  E     E  E  E  E  E  E  E  E   
-------------------------|-------------------------|--------------------------|
-------------------------|-------------------------|--------------------------|
--5----7--0--10----7--0--|--2----3--3--3--3--3--3--|--3--3--7--0--0--7--5--3--|
-------------------------|-------------------------|--------------------------|
-------------------------|-------------------------|--------------------------|
-------------------------|-------------------------|--------------------------|


                                                             PM PM PM PM PM  
  Q    E  E  E  E  E  E     Q    E  E  Q    E  E     Q    E  E  E  E  E  E   
-------------------------|------------------------|-------------------------|
-------------------------|------------------------|-------------------------|
--5----7--0--0--0--0--0--|--5----7--0--3----5--0--|--2----3--3--3--3--3--3--|
-------------------------|------------------------|-------------------------|
-------------------------|------------------------|-------------------------|
-------------------------|------------------------|-------------------------|


  Q    E  E  Q    E  E     E    
------------------------|-----||
------------------------|-----||
--7----5--3--5----3--2--|--0--||
------------------------|-----||
------------------------|-----||
------------------------|-----||




Duration Legend
---------------
W - whole
H - half
Q - quarter
E - 8th
S - 16th
T - 32nd
X - 64th
. - note dotted
|-n-|  - n-tuplets


Tablature Legend
----------------
L - tied note
x - dead note
g - grace note
(n) - ghost note
> - accentuded note
NH - natural harmonic
AH - artificial harmonic
TH - tapped harmonic
SH - semi harmonic
PH - pitch harmonic
h - hammer on
p - pull off
b - bend
br - bendRelease
pb - preBend
pbr - preBendRelease
brb - bendReleaseBend
\n/ - tremolo bar dip
\n - tremolo bar dive
-/n - tremolo bar Release up
/n\ - tremolo bar inverted dip
/n - tremolo bar return
-\n - tremolo bar Release down
S - shift slide
s - legato slide
/ -  slide into from below or out of upwards
\ -  slide into from above or out of downwards
~ - vibrato
W - wide vibrato
tr - trill
TP - tremolo picking
T - tapping
S - slap
P - pop
< - fade in
^ - brush up
v - brush down





Comments


Popular Heaven Shall Burn tabs & chords
Counterweight Bass Tabs
The Only Truth Bass Tabs
The Weapon They Fear Bass Tabs
Black Tears 1 Tabs
Endzeit Tabs
Endzeit 1 Tabs
Equinox Tabs
Not My God Tabs
Only Truth Tabs
Voice Of The Voiceless Tabs


Song lyrics



↑ Back to top | Tablatures and chords are parodies/interpretations of the original songs. You may use it for private study, scholarship, research or language learning purposes only
© 2014 AZChords.com Contact us | Privacy policy | DMCA | Add/correct tabs | Request tabs | Top 50 tabs