>
 >
Quest For Resistance

Quest For Resistance Guitar Tabs

Heaven Shall Burn - Quest For Resistance chords, tabs, tablatures, lyrics

Guitar lessons | Add/correct | Request | Top 50 tabs Artists:  A B C D E F G H I J K L M N O P Q R S T U V W X Y Z 0-9

Quest For Resistance Guitar Tabs – Heaven Shall Burn

CD, Sheet music, Poster

Do you like Quest For Resistance? Share with your friends now
Tabs
Heaven Shall Burn - Quest For Resistance
Tuning: CGCFAD

Riff1:			
    PM--------------------------|
|-------------------------------|
|-------------------------------|
|-------------------------------|
|-------------------------------|
|-1-0000000000000000000000000000|
|-1-0000000000000000000000000000|

     PM------------|    PM    PM
|---------------------------------|
|---------------------------------|
|---------------------------------|
|---------------------------------|
|-1--00000000000000-3-2---5-3---2-|
|-1--00000000000000-3-2-0-5-3-0-2-|

    PM--------------------------|
|-------------------------------|
|-------------------------------|
|-------------------------------|
|-------------------------------|
|-1-0000000000000000000000000000|
|-1-0000000000000000000000000000|

     PM----------|
|--------------------------------|
|--------------------------------|
|--------------------------------|
|--------------------------------|
|-1--000000000000----------------|
|-1--0000000000003333222255553333|

    PM--------------------------|
|-------------------------------|
|-------------------------------|
|-------------------------------|
|-------------------------------|
|-1-0000000000000000000000000000|
|-1-0000000000000000000000000000|

     PM------------|    PM    PM
|---------------------------------|
|---------------------------------|
|---------------------------------|
|---------------------------------|
|-1--00000000000000-3-2---5-3---2-|
|-1--00000000000000-3-2-0-5-3-0-2-|


    PM--------------------------|
|-------------------------------|
|-------------------------------|
|-------------------------------|
|-------------------------------|
|-1-0000000000000000000000000000|
|-1-0000000000000000000000000000|


     PM------------|    PM    PM  PM    PM    PM
|------------------------------------------------|
|------------------------------------------------|
|------------------------------------------------|
|------------------------------------------------|
|-1--00000000000000-3-2---5-3---2---3-2---5-3---2|
|-1--00000000000000-3-2-0-5-3-0-2-0-3-2-0-5-3-0-2|

Chorous1/2/3:(Start1/2)
|-------------------------|-----------------------|
|-------------------------|-----------------------|
|-------------------------|-----------------------|
|-------------------------|-----------------------|
|----8-7-7-----8-7-7-8-8--|----8-7-7-----8-7-10-8-|
|-0--------0-0------------|-0--------0-0----------|

(Start3)				      (End 2)
|---------------------------|-----------------------|
|---------------------------|-----------------------|
|---------------------------|-----------------------|	(2x(1))
|---------------------------|-----------------------|
|----8-7-7-------8-7-7-8-8--|----8-7-7-----8-7-10-8-|
|-0--------0-0-0------------|-0--------0-0----------|


|-------------------------|-----------------------|
|-------------------------|-----------------------|
|-------------------------|-----------------------|
|-------------------------|-----------------------|
|----8-7-7-----8-7-7-8-8--|----8-7-7-----8-7-10-8-|
|-0--------0-0------------|-0--------0-0----------|

					    (End 1/3)
|---------------------------|-----------------------|
|---------------------------|-----------------------|
|---------------------------|-----------------------|
|---------------------------|-----------------------|
|----8-7-7-------8-7-7-8-8--|----8-7-7-----8-7-10-8-|
|-0--------0-0-0------------|-0--------0-0----------|



Verse1:2x
  PM------------------------------|
|----------------------------------|
|----------------------------------|
|----------------------------------|
|----------------------------------|
|-00000000000000000000000033333333-|
|-00000000000000000000000033333333-|

  PM------------------------------|
|----------------------------------|
|----------------------------------|
|----------------------------------|
|----------------------------------|
|-00000000000000000000000055555555-|
|-00000000000000000000000055555555-|

  PM------------------------------|
|----------------------------------|
|----------------------------------|
|----------------------------------|
|----------------------------------|
|-00000000000000000000000033333333-|
|-00000000000000000000000033333333-|

  PM----------|
|----------------------------------|
|----------------------------------|
|----------------------------------|
|----------------------------------|
|-000000000000---------------------|
|-00000000000055553333222233335555-|


Verse2:2x
      PM---------|    PM----|
|------------------------------------|
|------------------------------------|
|------------------------------------|
|---------------------------77-------|
|-8888------------7777--------101077-|
|-----000000000000----000000---------|

      PM-------------------------|
|----------------------------------|
|----------------------------------|
|----------------------------------|
|----------------------------------|
|-8888-----------------------------|
|-----0000000000001111111111111111-|


      PM---------|    PM----|
|------------------------------------|
|------------------------------------|
|------------------------------------|
|---------------------------77-------|
|-8888------------7777--------101077-|
|-----000000000000----000000---------|

      PM-------------------------|
|----------------------------------|
|----------------------------------|
|----------------------------------|
|----------------------------------|
|-8888-----------------------------|
|-----0000000000005555555555555555-|


Verse3:4x
|----------------------------------|
|----------------------------------|
|----------------------------------|
|----------------------------------|
|-----888777777555----888777777888-|
|-0000------------0000-------------|



|-------------------------------------------|
|-------------------------------------------|
|-------------------------------------------|
|-------------------------------------------|
|-----888101010101010888----101010888888777-|
|-0000------------------0000----------------|

Verse1:	1x
Verse2:	2x
Verse3:	4x

Interlude:
|---------------------------------|
|---------------------------------|
|-14--14--14--14--12--12--12--12--|	8x
|---12--12--12--12--12--12--12--12|
|---------------------------------|
|---------------------------------|

|-------------------------------------------------|
|-------------------------------------------------|
|-14-14-14-14-14-14-14-14-14-14-14-14-17-17-17-17-|
|-12-12-12-12-12-12-12-12-12-12-12-12-12-12-12-12-|
|-------------------------------------------------|
|-------------------------------------------------|

|-------------------------------------------------|
|-------------------------------------------------|
|-10-10-10-10-10-10-10-10-10-10-10-10-10-10-10-10-|
|--8--8--8--8--8--8--8--8--8--8--8--8--8--8--8--8-|
|-------------------------------------------------|
|-------------------------------------------------|

|-------------------------------------------------|
|-------------------------------------------------|
|-14-14-14-14-14-14-14-14-14-14-14-14-17-17-17-17-|
|-12-12-12-12-12-12-12-12-12-12-12-12-15-15-15-15-|
|-------------------------------------------------|
|-------------------------------------------------|

|-------------------------------------------------|
|-------------------------------------------------|
|-10-10-10-10-10-10-10-10-10-10-10-10-10-10-10-10-|
|--8--8--8--8--8--8--8--8--8--8--8--8--8--8--8--8-|
|-------------------------------------------------|
|-------------------------------------------------|

Verse3:	4x

End:
|---|
|---|
|---|
|---|
|-0-|
|-0-|





Comments


Popular Heaven Shall Burn tabs & chords
Endzeit Bass Tabs
Voice Of The Voiceless 2 Bass Tabs
Atonement Tabs
Atonement 1 Tabs
Behind A Wall Of Silence Tabs
Bleeding To Death Tabs
Equinox Tabs
Forlorn Skies Tabs
Like A Thousand Suns Tabs
Not My God Tabs


Song lyrics



↑ Back to top | Tablatures and chords are parodies/interpretations of the original songs. You may use it for private study, scholarship, research or language learning purposes only
© 2014 AZChords.com Contact us | Privacy policy | DMCA | Add/correct tabs | Request tabs | Top 50 tabs