>
 >
Numbing The Pain

Numbing The Pain Guitar Tabs

Heaven Shall Burn - Numbing The Pain chords, tabs, tablatures, lyrics

Guitar lessons | Add/correct | Request | Top 50 tabs Artists:  A B C D E F G H I J K L M N O P Q R S T U V W X Y Z 0-9

Numbing The Pain Guitar Tabs – Heaven Shall Burn

CD, Sheet music, Poster

Do you like Numbing The Pain? Share with your friends now
Bass TabsTabs
Tuning: Drop C (DAFCGC)




G/1 (play 2x)
|-|------------------------------------------|
|-|------------------------------------------|
|-|------------------------------------------|
|-|------------------------------------------|
|-|-0000-0000-0000-0000-3333-3333-7777-7777--|
|-|-0000-0000-0000-0000-3333-3333-7777-7777--|

|-|---------------------------------------------------------|
|-|---------------------------------------------------------|
|-|---------------------------------------------------------|
|-|---------------------------------------------------------|
|-|-0000-0000-0000-0000-7777-7777-10-10-10-10--10-10-10-10--|
|-|-0000-0000-0000-0000-7777-7777-10-10-10-10--10-10-10-10--|


G/2 (play 2x)
|-|------------------------------------------------------------------|
|-|------------------------------------------------------------------|
|-|------------------------------------------------------------------|
|-|-3333-3333-222-333-55--3333-3333-222-333-55--3333-3333-222-333-55-|
|-|------------------------------------------------------------------|
|-|------------------------------------------------------------------|

|-|---------------------|
|-|---------------------|
|-|---------------------|
|-|---------------------|
|-|-3333-3333-3333-3333-|
|-|---------------------|



G/1
|-|----------------|
|-|----------------|
|-|----------------|
|-|----------------|
|-|-0-3-7-0-7-10-0-|
|-|-0-3-7-0-7-10-0-|
                 .

G/2
|-|------------------------|
|-|------------------------|
|-|-----2-0----------------|
|-|-3-2-----3-2-3--2-5-3-2-|
|-|------------------------|
|-|------------------------|



Play this alone first;;
|-|------------------------|
|-|------------------------|
|-|------------------------|
|-|-15-14-12---15-14-12-14-|
|-|---0--0--00---0--0------|
|-|------------------------|
      .  .  ..   .  .

G/1
|-|---------------------|
|-|---------------------|
|-|---------------------|
|-|---------------------| 2x
|-|-0-5-3--7-77-7-77-77-|
|-|-0-5-3--7-77-7-77-77-|
             ..   ..

|-|--------------------------------------|
|-|--------------------------------------|
|-|--------------------------------------|
|-|--------------------------------------| 2x
|-|---8-7-5---8-7-5-7---8-7-5-10--8--7-8-|
|-|-00-0-0-00--0-0---00--0-0-0--00-00----|
    .. . . ..  . .   ..  . . .  .. ..

G/2
|-|------------------------------------------------|
|-|------------------------------------------------|
|-|------------------------------------------------|
|-|-15-14-12---15-14-12-14--15-14-12-17--15--14-15-| 3x
|-|---0--0--00---0--0-----00--0--0-----00--00------|
|-|------------------------------------------------|
      .  .  ..   .  .     ..  .  .     ..  ..

|-|-------------------------------------|
|-|-------------------------------------|
|-|-------------------------------------|
|-|-15-14-12---15-14-12-14--15-14-12-17-|
|-|---0--0--00---0--0-----00--0--0------|
|-|-------------------------------------|
      .  .  ..   .  .     ..  .  .


G/1
|-|-----------------------------------------|
|-|-----------------------------------------|
|-|-----------------------------------------|
|-|-----------------------------------------|
|-|-0000-0000-0000-0000-8888-8888-7777-7777-|
|-|-0000-0000-0000-0000-8888-8888-7777-7777-|

|-|-----------------------------------------|
|-|-----------------------------------------|
|-|-----------------------------------------|
|-|-----------------------------------------|
|-|-0000-0000-0000-0000-3333-3333-3333-3333-|
|-|-0000-0000-0000-0000-3333-3333-3333-3333-|

|-|-----------------------------------------|
|-|-----------------------------------------|
|-|-----------------------------------------|
|-|-----------------------------------------|
|-|-0000-0000-0000-0000-8888-8888-7777-7777-|
|-|-0000-0000-0000-0000-8888-8888-7777-7777-|

|-|-------------------------------|
|-|-------------------------------|
|-|-------------------------------|
|-|-------------------------------|
|-|-0000-0000-0000-0000-3333-3333-|
|-|-0000-0000-0000-0000-3333-3333-|

G/2
|-|-------------------------------------------------|
|-|-------------------------------------------------|
|-|-------------------------------------------------|
|-|-------------------------14-14-14-15-15-15-14-14-| 2x
|-|-12-12-12-12-12-12-12-12-------------------------|
|-|-------------------------------------------------|

|-|-------------------------------------------------|
|-|-------------------------------------------------|
|-|-------------------------------------------------|
|-|-12-12-12-12-12-12-12-12-14-14-14-15-15-15-14-14-|
|-|-------------------------------------------------|
|-|-------------------------------------------------|

|-|------------------------------------------------|
|-|------------------------------------------------|
|-|------------------------------------------------|
|-|-------------------------14-14-14-12-12-12------|
|-|-15-15-15-15-15-15-15-15------------------15-15-|
|-|------------------------------------------------|

|-|-------------------------------------------------|
|-|-------------------------------------------------|
|-|-------------------------------------------------|
|-|-------------------------14-14-14-15-15-15-14-14-|
|-|-12-12-12-12-12-12-12-12-------------------------|
|-|-------------------------------------------------|

|-|-------------------------------------------------|
|-|-------------------------------------------------|
|-|-------------------------------------------------|
|-|-12-12-12-12-12-12-12-12-14-14-14-15-15-15-14-14-| 2x
|-|-------------------------------------------------|
|-|-------------------------------------------------|

|-|-------------------------------------------------|
|-|-------------------------------------------------|
|-|-------------------------------------------------|
|-|-------------------------14-14-14-15-15-15-14-14-|
|-|-12-12-12-12-12-12-12-12-------------------------|
|-|-------------------------------------------------|


Alone at beggining;;
|-|------------------------------------------------|
|-|------------------------------------------------|
|-|------------------------------------------------|
|-|-15-14-12---15-14-12-14--15-14-12-17--15--14-15-| 2x
|-|---0--0--00---0--0-----00--0--0-----00--00------|
|-|------------------------------------------------|
      .  .  ..   .  .     ..  .  .     ..  ..

G/1
|-|---------------------|
|-|---------------------|
|-|---------------------|
|-|---------------------|
|-|-0-5-3--7-77-7-77-77-|
|-|-0-5-3--7-77-7-77-77-|
             ..   ..

|-|----------|
|-|----------|
|-|----------|
|-|----------|
|-|-0-5-3--7-|
|-|-0-5-3--7-|

G/2
|-|------------------------------------------------|
|-|------------------------------------------------|
|-|------------------------------------------------|
|-|-15-14-12---15-14-12-14--15-14-12-17--15--14-15-| 2x
|-|---0--0--00---0--0-----00--0--0-----00--00------|
|-|------------------------------------------------|
      .  .  ..   .  .     ..  .  .     ..  ..





G/1
|-|--------------------------------------|
|-|--------------------------------------|
|-|--------------------------------------|
|-|-10-10-10-10-10-10-10-9-9-9-7-7-7-9-9-|
|-|-10-10-10-10-10-10-10-9-9-9-7-7-7-9-9-|
|-|--------------------------------------|

|-|-------------------------------------------------|
|-|-------------------------------------------------|
|-|-------------------------------------------------|
|-|-------------------------------------------------|
|-|-10-10-10-10-10-10-10-10-10-10-10-10-10-10-10-10-|
|-|-10-10-10-10-10-10-10-10-10-10-10-10-10-10-10-10-|

|-|-------------------------------------------------------------|
|-|-------------------------------------------------------------|
|-|-------------------------------------------------------------|
|-|-------------------------------------------------------------|
|-|-7777-7777-7777-7777-5555-5555-5555-5555-7777-7777-7777-7777-|
|-|-7777-7777-7777-7777-5555-5555-5555-5555-7777-7777-7777-7777-|

|-|-------------------------------------------------|
|-|-------------------------------------------------|
|-|-------------------------------------------------|
|-|-------------------------------------------------|
|-|-10-10-10-10-10-10-10-10-10-10-10-10-10-10-10-10-|
|-|-10-10-10-10-10-10-10-10-10-10-10-10-10-10-10-10-|

|-|-------------------------------------------------------------|
|-|-------------------------------------------------------------|
|-|-------------------------------------------------------------|
|-|-------------------------------------------------------------|
|-|-7777-7777-7777-7777-3333-3333-3333-3333-7777-7777-7777-7777-|
|-|-7777-7777-7777-7777-3333-3333-3333-3333-7777-7777-7777-7777-|

|-|-------------------------------------------------|
|-|-------------------------------------------------|
|-|-------------------------------------------------|
|-|-------------------------------------------------|
|-|-10-10-10-10-10-10-10-10-10-10-10-10-10-10-10-10-|
|-|-10-10-10-10-10-10-10-10-10-10-10-10-10-10-10-10-|

|-|-------------------------------------------------------------|
|-|-------------------------------------------------------------|
|-|-------------------------------------------------------------|
|-|-------------------------------------------------------------|
|-|-7777-7777-7777-7777-3333-3333-3333-3333-7777-7777-7777-7777-|
|-|-7777-7777-7777-7777-3333-3333-3333-3333-7777-7777-7777-7777-|

|-|-------------------------------------------------|
|-|-------------------------------------------------|
|-|-------------------------------------------------|
|-|-------------------------------------------------|
|-|-10-10-10-10-10-10-10-10-10-10-10-10-10-10-10-10-|
|-|-10-10-10-10-10-10-10-10-10-10-10-10-10-10-10-10-|

|-|-----------------------------------------|
|-|-----------------------------------------|
|-|-----------------------------------------|
|-|-----------------------------------------|
|-|-7777-7777-7777-7777-3333-3333-3333-3333-|
|-|-7777-7777-7777-7777-3333-3333-3333-3333-|

G/2
|-|----------------------------|
|-|----------------------------|
|-|----------------------------|
|-|-13-12-10-7-9-7-5--7-9-7-10-|
|-|----------------------------|
|-|----------------------------|

|-|-------------------------------|
|-|-------------------------------|
|-|-------------------------------|
|-|-13-18\-7-9-7-10-9-10-7-9-7-10-|
|-|-------------------------------|
|-|-------------------------------|

|-|-------------------------------|
|-|-------------------------------|
|-|-------------------------------|
|-|-13-18\-7-9-10-5-10-9-7-9-7-10-|
|-|-------------------------------|
|-|-------------------------------|

|-|----------------------|
|-|----------------------|
|-|----------------------|
|-|-13-18\-7-9-10-5-10-9-|
|-|----------------------|
|-|----------------------|


|-|-------------------------------------------|
|-|-------------------------------------------|
|-|-------------------------------------------|
|-|-15-14-12-15-14-12-14-15-14-12-17-15-14-15-|
|-|-------------------------------------------|
|-|-------------------------------------------|




end
*replay and tell me about the tabs*





Comments


Popular Heaven Shall Burn tabs & chords
Profane Believers 2 Bass Tabs
Stay The Course Bass Tabs
The Weapon They Fear Bass Tabs
Behind A Wall Of Silence Tabs
Counterweight Tabs
Dream Is Dead Tabs
Forlorn Skies Tabs
Murderers Of The Murderers Tabs
Profane Believers Tabs
Voice Of The Voiceless Tabs


Song lyrics



↑ Back to top | Tablatures and chords are parodies/interpretations of the original songs. You may use it for private study, scholarship, research or language learning purposes only
© 2014 AZChords.com Contact us | Privacy policy | DMCA | Add/correct tabs | Request tabs | Top 50 tabs