>
 >
Not My God

Not My God Guitar Tabs

Heaven Shall Burn - Not My God chords, tabs, tablatures, lyrics

Guitar lessons | Add/correct | Request | Top 50 tabs Artists:  A B C D E F G H I J K L M N O P Q R S T U V W X Y Z 0-9

Not My God Guitar Tabs – Heaven Shall Burn

CD, Sheet music, Poster

Do you like Not My God? Share with your friends now
Tabs
Band:Heaven Shall Burn
Album:Antigone
Tuning:Drop-C (DAFCGC)
*This is a cover originally performed by Hate Squad.The double basing in the song makes 
sound harder than it is.*

Intro 1:
|-|----------------------|
|-|----------------------|
|-|----------------------|
|-|--2--3---2--3---2-3---|
|-|--2--3---2--3---2-3---|  X6
|-|--2--3---2--3---2-3---|

Intro 2:

|-|-----------------------------------------|
|-|-----------------------------------------|
|-|-----------------------------------------|
|-|--2--3---2--3---2-3---5---6-5---3---2-3--|
|-|--2--3---2--3---2-3---5---6-5---3---2-3--|  X4
|-|--2--3---2--3---2-3---5---6-5---3---2-3--|

Verse1:
|-|-----------------|
|-|-----------------|
|-|-----------------|
|-|-----------------|
|-|-00000000--5/6---|  X8
|-|-00000000--------|

Verse2:

|-|--------------------|
|-|--------------------|
|-|--------------------|
|-|-0--3-1--0--3-1--5--|
|-|-0--3-1--0--3-1--5--|  X2
|-|-0--3-1--0--3-1--5--|

Verse1
Verse2

Breakdown 1:

|-|---------------------|
|-|---------------------|
|-|---------------------|
|-|-232--232--232--356--|
|-|-232--232--232--356--|
|-|-232--232--232--356--|
    ...       ...

Intro

Chorus:

Guitar 1//

|-|-------------|
|-|-------------|
|-|-------------|
|-|-2--5--0--3--|  X2
|-|-2--5--0--3--|
|-|-2--5--0--3--|

Guitar2//

|-|--------------------------------------|
|-|--------------------------------------|
|-|--------------------------------------|
|-|-9--12--14-7--10--12-9--12--14-7--10--|
|-|--------------------------------------|
|-|--------------------------------------|

Verse 1

Breakdown 2:

|-|---------------------------|
|-|---------------------------|
|-|---------------------------|
|-|---------------------------|  X10
|-|---------------------------|
|-|-0000000-0-1--0000000-1-0--|

Then one guitar plays that 2 more times while the other plays:

|-|---------------------------------|
|-|---------------------------------|
|-|---------------------------------|
|-|-12-13-12-13-13--14-15-14-15-15--| X2
|-|---------------------------------|
|-|---------------------------------|

Then both guitars play:

|-|----------------------------------------------------------------------|
|-|----------------------------------------------------------------------|
|-|----------------------------------------------------------------------|
|-|-12-13-12-13-13--14-15-14-15-15--12-13-12-13-13--12-13-15-16-15-13-15-|
|-|----------------------------------------------------------------------|
|-|----------------------------------------------------------------------|

Verse 1
Verse 2
Breakdown 1
Intro 2
Chorus
Verse 1

In the end where it keeps saying "my god, my god, my god, my god, yyour are not my god" 
guitar plays Verse 1 while the other plays//

|-|---
|-|---
|-|---
|-|-0-  X8
|-|-0-
|-|-0-





Comments


Popular Heaven Shall Burn tabs & chords
Counterweight Bass Tabs
Voice Of The Voiceless 2 Bass Tabs
Weapon They Fear Bass Tabs
Counterweight Tabs
Endzeit Tabs
Like A Thousand Suns Tabs
Only Truth Tabs
Profane Believers Tabs
Voice Of The Voiceless Tabs
Weapon They Fear Tabs


Song lyrics



↑ Back to top | Tablatures and chords are parodies/interpretations of the original songs. You may use it for private study, scholarship, research or language learning purposes only
© 2014 AZChords.com Contact us | Privacy policy | DMCA | Add/correct tabs | Request tabs | Top 50 tabs