» » »

Heaven Shall Burn, Implore The Darken Sky Tabs (ver.1)

Artists:  A B C D E F G H I J K L M N O P Q R S T U V W X Y Z # 

Implore The Darken Sky Tabs (ver.1)

Heaven Shall Burn Tabs
Rating:
0/5 (0 votes)
Implore The Darken Sky lessons Tabs too difficult? Try these video lessons and learn fast
                Album : Whatever It May Take

Tuning:Drop C (DAFCGC)

| *  tremo pick
| /  slide up
| \  slide down
| h  hammer-on
| p  pull-off
| ~  vibrato
| +  harmonic
| .  Mute note

G1
D|-----------------------------------|
A|-----------------------------------|
F|-----------------------------------|
C|----6*-4*-2*-1*----6*-7*-9*-7*-6*--|  X4
G|-4*-------------4*-----------------|
C|-----------------------------------|

G2
(Play each number as needed)
D|---------------------|
A|---------------------|
F|---------------------|
C|-0-4-7-0-2--4-7-0-2--|
G|-0-4-7-0-2--4-7-0-2--|
C|-0-4-7-0-2--4-7-0-2--|

G1
D|--------------------------------------|
A|--------------------------------------|
F|--------------------------------------|
C|--------------------------------------| X4
G|-6*-4*----6*-4*----7*-6*-0*-9*-7*-6*--|
C|-------6*-------6*--------------------|

G2 (play each number as needed)
D|-------|
A|-------|
F|-------|
C|-------| X4
G|-6-7-9-|
C|-6-7-9-|


Either guitar (play as needed)
D|-----
A|-----
F|-----
C|-14--
G|-12--
C|-----

G1
D|--------------------------------------------------------------------------|
A|7-10-14-12-9-9/10\9-7-10-14-14-14\12/14-7-10-14-12-9-9/10\9-7-10-14-13-14-|
F|--------------------------------------------------------------------------|
C|--------------------------------------------------------------------------|
G|--------------------------------------------------------------------------|
C|--------------------------------------------------------------------------|


G2 (Play each number as needed)
D|-----------------|
A|-----------------|
F|-----------------|
C|-4-6-4-7-4-6-4-3-|
G|-4-6-4-7-4-6-4-3-|
C|-4-6-4-7-4-6-4-3-|

G1 & G2
D|----------------------------------------------------------------|
A|----------------------------------------------------------------|
F|----------------------------------------------------------------|
C|----------------------------------------------------------------|
G|-00000000000000000000-33333333333333333333-00000000000000000000-|
C|-00000000000000000000-33333333333333333333-00000000000000000000-|
    .... .... .... ....  .... .... .... ....  .... .... .... ....
D|----------------------|
A|----------------------|
F|----------------------|
C|----------------------|
G|-22222222222222222222-
C|-22222222222222222222-
    .... .... .... ....
G1
D|-----------------------------------|
A|-----------------------------------|
F|-----------------------------------|
C|----6*-4*-2*-1*----6*-7*-9*-7*-6*--|  X2
G|-4*-------------4*-----------------|
C|-----------------------------------|

G2
(Play each number as needed)
D|------------|
A|------------|
F|------------|
C|-0-4-7-0-2--|
G|-0-4-7-0-2--|
C|-0-4-7-0-2--|

G1
D|--------------------------------------|
A|--------------------------------------|
F|--------------------------------------|
C|--------------------------------------| X4
G|-6*-4*----6*-4*----7*-6*-0*-9*-7*-6*--|
C|-------6*-------6*--------------------|

G2 (play each number as needed)
D|-------|
A|-------|
F|-------|
C|-------| X4
G|-6-7-9-|
C|-6-7-9-|

G1 & G2
D|-------------------------------------------|
A|-------------------------------------------|
F|-------------------------------------------|
C|-----66-2222-9999-222-----66-2222-9999-777-| X2
G|-444------------------444------------------|
C|-------------------------------------------|

G1 & G2
D|----------------------------------------------------------------|
A|----------------------------------------------------------------|
F|----------------------------------------------------------------|
C|----------------------------------------------------------------|
G|-00000000000000000000-22222222222222222222-44444444444444444444-|
C|-00000000000000000000-22222222222222222222-44444444444444444444-|
    .... .... .... ....  .... .... .... ....  .... .... .... ....

D|----------------------|
A|----------------------|
F|----------------------|
C|----------------------|
G|-00000000000000000000-
C|-00000000000000000000-
    .... .... .... ....

G1 & G2
D|-------------------------------------------|
A|-------------------------------------------|
F|-------------------------------------------|
C|-----66-2222-9999-222-----66-2222-9999-777-| X2
G|-444------------------444------------------|
C|-------------------------------------------|

G1
D|----------------------------------------------|
A|------------4-2-------------------------------|
F|-4-3-1--3-4-----4-3-4-6-3-1---1-3-4*-3*-1*-3*-|
C|----------------------------4-----------------| X4
G|----------------------------------------------|
C|----------------------------------------------|

G1
D|----------|
A|----------|
F|----------|
C|-9-8-6--4-| X4
G|-9-8-6--4-|
C|-9-8-6--4-|

Either guitar (play as needed)
D|-----
A|-----
F|-----
C|-14--
G|-12--
C|-----

G1
D|--------------------------------------------------------------------------|
A|7-10-14-12-9-9/10\9-7-10-14-14-14\12/14-7-10-14-12-9-9/10\9-7-10-14-13-14-|
F|--------------------------------------------------------------------------|
C|--------------------------------------------------------------------------|
G|--------------------------------------------------------------------------|
C|--------------------------------------------------------------------------|

G2 (Play each number as needed)
D|-----------------|
A|-----------------|
F|-----------------|
C|-4-6-4-7-4-6-4-3-|
G|-4-6-4-7-4-6-4-3-|
C|-4-6-4-7-4-6-4-3-|

G1
D|--------------------------------------|
A|--------------------------------------|
F|--------------------------------------|
C|--------------------------------------| X4
G|-6*-4*----6*-4*----7*-6*-0*-9*-7*-6*--|
C|-------6*-------6*--------------------|

G2 (play each number as needed)
D|-------|
A|-------|
F|-------|
C|-------| X4
G|-6-7-9-|
C|-6-7-9-|

G1 (****NOTE: only one while G2 playsriff)
D|-------------------------------------------|
A|-------------------------------------------|
F|-------------------------------------------|
C|-----66-2222-9999-222-----66-2222-9999-777-| X2
G|-444------------------444------------------|
C|-------------------------------------------|

G1
D|----------------------------------------------------------------|
A|----------------------------------------------------------------|
F|----------------------------------------------------------------|
C|----------------------------------------------------------------|
G|-00000000000000000000-22222222222222222222-44444444444444444444-|
C|-00000000000000000000-22222222222222222222-44444444444444444444-|
    .... .... .... ....  .... .... .... ....  .... .... .... ....

D|----------------------|
A|----------------------|
F|----------------------|
C|----------------------|
G|-00000000000000000000-
C|-00000000000000000000-
    .... .... .... ....

G1 & G2 (then both play)
D|----------------------------------------------------------------|
A|----------------------------------------------------------------|
F|----------------------------------------------------------------|
C|----------------------------------------------------------------|
G|-00000000000000000000-22222222222222222222-44444444444444444444-|
C|-00000000000000000000-22222222222222222222-44444444444444444444-|
    .... .... .... ....  .... .... .... ....  .... .... .... ....

D|----------------------|
A|----------------------|
F|----------------------|
C|----------------------|
G|-00000000000000000000-
C|-00000000000000000000-
    .... .... .... ....

BOth play this until song ends:
D|-------------------------------------------|
A|-------------------------------------------|
F|-------------------------------------------|
C|-----66-2222-9999-222-----66-2222-9999-777-| X2
G|-444------------------444------------------|
C|-------------------------------------------|

_END_


===============================================================================
            

comments powered by Disqus
↑ Back to top | Heaven Shall Burn Tabs for Implore The Darken Sky. Lyrics for acoustic guitar and electric guitar. Tablatures and chords are parodies/interpretations of the original songs. You may use it for private study, scholarship, research or language learning purposes only