>
 >
Counterweight

Counterweight Bass Tabs

Heaven Shall Burn - Counterweight chords, tabs, tablatures, lyrics

Guitar lessons | Add/correct | Request | Top 50 tabs Artists:  A B C D E F G H I J K L M N O P Q R S T U V W X Y Z 0-9

Counterweight Bass Tabs – Heaven Shall Burn

CD, Sheet music, Poster

Do you like Counterweight? Share with your friends now
Bass TabsTabs
                                Counterweight                                   


                                                               Heaven Shall Burn
Bass



     Q    Q    E  Q    E     Q    E  Q    E  E  E     Q    Q    E  Q    E   
F||-----------------------|------------------------|-----------------------|
C||-----------------------|------------------------|-----------------------|
G||-------6-------5-------|--8-------6-------5--6--|-------6-------5-------|
C||--0---------0-------0--|-------0-------0--------|--0---------0-------0--|


  Q.     Q.     Q       Q    Q    E  Q    E     Q    E  Q    E  E  E   
---------------------|-----------------------|------------------------|
---------------------|-----------------------|------------------------|
--8------6------5----|-------6-------5-------|--8-------6-------5--6--|
---------------------|--0---------0-------0--|-------0-------0--------|


  Q.     Q.     Q       E  Q    E  H           Q    Q    E  Q    E   
---------------------|----------------------|-----------------------|
---------------------|----------------------|-----------------------|
---------5------6----|----------------------|-------6-------5-------|
--5------------------|--3-------------------|--0---------0-------0--|


  Q    E  Q    E  E  E     Q    Q    E  Q    E     Q.     Q.     Q     
------------------------|-----------------------|---------------------|
------------------------|-----------------------|---------------------|
--8-------6-------5--6--|-------6-------5-------|--8------6------5----|
-------0-------0--------|--0---------0-------0--|---------------------|


  Q    Q    E  Q    E     Q    E  Q    E  E  E     W                 
-----------------------|------------------------|-------------------|
-----------------------|------------------------|-------------------|
-------6-------5-------|--8-------6-------5--6--|-------------------|
--0---------0-------0--|-------0-------0--------|--5----------------|


  W                   W                   W                   W                 
-------------------|-------------------|-------------------|-------------------|
-------------------|-------------------|-------------------|-------------------|
-------------------|-------------------|-------------------|-------------------|
--3----------------|--0----------------|--L----------------|--0----------------|


  W                   W                   W                   W                 
-------------------|-------------------|-------------------|-------------------|
-------------------|-------------------|-------------------|-------------------|
-------------------|-------------------|-------------------|-------------------|
--L----------------|--0----------------|--L----------------|--5----------------|


  W                   W                   H.           Q     
-------------------|-------------------|--------------------|
-------------------|-------------------|--------------------|
-------------------|-------------------|--------------------|
--L----------------|--0----------------|--L------------3----|


  W                   H        H           W                 
-------------------|--------------------|-------------------|
-------------------|--------------------|-------------------|
-------------------|--------------------|-------------------|
--0----------------|--3--------1--------|--0----------------|


  W                   W                   W                 
-------------------|-------------------|-------------------|
-------------------|-------------------|-------------------|
-------------------|-------------------|-------------------|
--L----------------|--5----------------|--8----------------|


  E  E  E  E  E  E  E  E     E  E  E  E  E  E  E  E   
--------------------------|--------------------------|
--------------------------|--------------------------|
--------------------------|--------------8--8--7--7--|
--0--0--0--0--0--0--0--0--|--0--0--0--0--------------|


  E  E  E  E  E  E  E  E      E   E   E  E  E  E   E   E   
--------------------------|-------------------------------|
--------------------------|-------------------------------|
--------------------------|--10--10--10--8--8--8----------|
--8--8--8--8--8--8--8--8--|-----------------------10--10--|


  E  E  E  E  E  E  E  E     E  E  E  E  E  E  E  E   
--------------------------|--------------------------|
--------------------------|--------------------------|
--------------------------|--------------8--8--7--7--|
--0--0--0--0--0--0--0--0--|--0--0--0--0--------------|


  E  E  E  E  E  E  E  E     E  E  E  E  E  E  E  E   
--------------------------|--------------------------|
--------------------------|--------------------------|
--------------------------|--------------------------|
--8--8--8--8--8--8--8--8--|--3--3--3--3--3--3--3--3--|


  E  E  E  E  E  E  E  E     E  E  E  E  E  E  E  E   
--------------------------|--------------------------|
--------------------------|--------------------------|
--------------------------|--------------8--8--7--7--|
--0--0--0--0--0--0--0--0--|--0--0--0--0--------------|


  E  E  E  E  E  E  E  E      E   E   E  E  E  E   E   E   
--------------------------|-------------------------------|
--------------------------|-------------------------------|
--------------------------|--10--10--10--8--8--8----------|
--8--8--8--8--8--8--8--8--|-----------------------10--10--|


  E  E  E  E  E  E  E  E     E  E  E  E  E  E  E  E   
--------------------------|--------------------------|
--------------------------|--------------------------|
--------------------------|--------------8--8--7--7--|
--0--0--0--0--0--0--0--0--|--0--0--0--0--------------|


  E  E  E  E  E  E  E  E     E  E  E  E  E  E  E  E     S S E  Q    H         
--------------------------|--------------------------|-----------------------|
--------------------------|--------------------------|-----------------------|
--------------------------|--------------------------|-----------------------|
--8--8--8--8--8--8--8--8--|--3--3--3--3--3--3--3--3--|--0-0-0----------------|


  H.           E  E     S S E  Q    H           W                 
---------------------|-----------------------|-------------------|
---------------------|-----------------------|-------------------|
---------------------|-----------------------|-------------------|
------------------0--|--0-0-0----------------|-------------------|


  Q    Q    E  Q    E     Q    E  Q    E  E  E     Q.     Q.     Q     
-----------------------|------------------------|---------------------|
-----------------------|------------------------|---------------------|
-------6-------5-------|--8-------6-------5--6--|---------5------6----|
--0---------0-------0--|-------0-------0--------|--5------------------|


  Q.     Q.     Q       Q    Q    E  Q    E     Q    E  Q    E  E  E   
---------------------|-----------------------|------------------------|
---------------------|-----------------------|------------------------|
---------3------5----|-------6-------5-------|--8-------6-------5--6--|
--3------------------|--0---------0-------0--|-------0-------0--------|


  Q    Q    E  Q    E     Q.     Q.     Q       Q    Q    E  Q    E   
-----------------------|---------------------|-----------------------|
-----------------------|---------------------|-----------------------|
-------6-------5-------|--8------6------5----|-------6-------5-------|
--0---------0-------0--|---------------------|--0---------0-------0--|


  Q    E  Q    E  E  E     Q.     Q.     Q       Q.     Q.     Q     
------------------------|---------------------|---------------------|
------------------------|---------------------|---------------------|
--8-------6-------5--6--|---------5------6----|---------3------5----|
-------0-------0--------|--5------------------|--3------------------|


  Q    Q    E  Q    E     Q    E  Q    E  E  E     Q    Q    E  Q    E   
-----------------------|------------------------|-----------------------|
-----------------------|------------------------|-----------------------|
-------6-------5-------|--8-------6-------5--6--|-------6-------5-------|
--0---------0-------0--|-------0-------0--------|--0---------0-------0--|


  Q.     Q.     Q       Q    Q    E  Q    E     Q    E  Q    E  E  E   
---------------------|-----------------------|------------------------|
---------------------|-----------------------|------------------------|
--8------6------5----|-------6-------5-------|--8-------6-------5--6--|
---------------------|--0---------0-------0--|-------0-------0--------|


  Q.     Q.     Q       Q.     Q.     Q       E  E  E  E  E  E  E  E   
---------------------|---------------------|--------------------------|
---------------------|---------------------|--------------------------|
---------5------6----|---------3------5----|--------6--6-----5--5--5--|
--5------------------|--3------------------|--0--0--------0-----------|


  E  E  E  E  E  E  E  E     E  E  E  E  E  E  E  E   
--------------------------|--------------------------|
--------------------------|--------------------------|
--------8--8-----6--6--6--|--------6--6-----5--5--5--|
--0--0--------0-----------|--0--0--------0-----------|


  E  E  E  E  E  E  E  E     E  E  E  E  E  E  E  E   
--------------------------|--------------------------|
--------------------------|--------------------------|
--------5--5--5--5--6--6--|--------6--6-----5--5--5--|
--0--0--------------------|--0--0--------0-----------|


  E  E  E  E  E  E  E  E     E  E  E  E  E  E  E  E   
--------------------------|--------------------------|
--------------------------|--------------------------|
--------8--8-----6--6--6--|--------6--6-----5--5--5--|
--0--0--------0-----------|--0--0--------0-----------|


  E  E  E  E  E  E  E  E     E  E  E  E  E  E  E  E   
--------------------------|--------------------------|
--------------------------|--------------------------|
--------5--5--5--5--6--6--|--------------------------|
--0--0--------------------|--0--0--0--0--0--0--0--0--|


  E  E  E  E  E  E  E  E     E  E  E  E  E  E  E  E   
--------------------------|--------------------------|
--------------------------|--------------------------|
--------------------------|--------------------------|
--0--0--0--0--0--0--0--0--|--8--8--8--8--8--8--8--8--|


  E  E  E  E  E  E  E  E     E  E  E  E  E  E  E  E   
--------------------------|--------------------------|
--------------------------|--------------------------|
--------------------------|--------------------------|
--5--5--5--5--5--5--5--5--|--0--0--0--0--0--0--0--0--|


  E  E  E  E  E  E  E  E      E   E   E   E   E   E   E   E   
--------------------------|----------------------------------|
--------------------------|----------------------------------|
--------------------------|----------------------------------|
--0--0--0--0--0--0--0--0--|--10--10--10--10--10--10--10--10--|


  E  E  E  E  E  E  E  E     W                   W                 
--------------------------|-------------------|-------------------|
--------------------------|-------------------|-------------------|
--------------------------|-------------------|-------------------|
--5--5--5--5--5--5--5--5--|--0----------------|--L----------------|


  W                   W                   W                 
-------------------|-------------------|-------------------|
-------------------|-------------------|-------------------|
-------------------|-------------------|-------------------|
--8----------------|--5----------------|--0----------------|


   W                    W                   W                 
--------------------|--------------------|-------------------|
--------------------|--------------------|-------------------|
--------------------|--------------------|-------------------|
---L----------------|--10----------------|--5----------------|


  E  E  E  E  E  E  E  E     E  E  E  E  E  E  E  E   
--------------------------|--------------------------|
--------------------------|--------------------------|
--------------------------|--------------8--8--7--7--|
--0--0--0--0--0--0--0--0--|--0--0--0--0--------------|


  E  E  E  E  E  E  E  E      E   E   E  E  E  E   E   E   
--------------------------|-------------------------------|
--------------------------|-------------------------------|
--------------------------|--10--10--10--8--8--8----------|
--8--8--8--8--8--8--8--8--|-----------------------10--10--|


  E  E  E  E  E  E  E  E     E  E  E  E  E  E  E  E   
--------------------------|--------------------------|
--------------------------|--------------------------|
--------------------------|--------------8--8--7--7--|
--0--0--0--0--0--0--0--0--|--0--0--0--0--------------|


  E  E  E  E  E  E  E  E     E  E  E  E  E  E  E  E     S S E  Q    H         
--------------------------|--------------------------|-----------------------|
--------------------------|--------------------------|-----------------------|
--------------------------|--------------------------|-----------------------|
--8--8--8--8--8--8--8--8--|--3--3--3--3--3--3--3--3--|--0-0-0----------------|


  S S E  Q    H           S S E  Q    H           S S E  Q    S S E  Q     
-----------------------|-----------------------|--------------------------|
-----------------------|-----------------------|--------------------------|
-----------------------|-----------------------|--------------------------|
--0-0-0----------------|--0-0-0----------------|--0-0-0-------0-0-0-------|


  E  E  E  E  E  E  E  E     E  E  E  E  E  E  E  E   
--------------------------|--------------------------|
--------------------------|--------------------------|
--------6--6-----5--5--5--|--------8--8-----6--6--6--|
--0--0--------0-----------|--0--0--------0-----------|


  E  E  E  E  E  E  E  E     E  E  E  E  E  E  E  E     S S E  Q    H         
--------------------------|--------------------------|-----------------------|
--------------------------|--------------------------|-----------------------|
--------6--6-----5--5--5--|--------5--5--5--5--6--6--|-----------------------|
--0--0--------0-----------|--0--0--------------------|--0-0-0----------------|


  S S E  Q    H           S S E  Q    H           S S E  Q    S S E  Q     
-----------------------|-----------------------|--------------------------|
-----------------------|-----------------------|--------------------------|
-----------------------|-----------------------|--------------------------|
--0-0-0----------------|--0-0-0----------------|--0-0-0-------0-0-0-------|


  E  E  E  E  E  E  E  E     E  E  E  E  E  E  E  E   
--------------------------|--------------------------|
--------------------------|--------------------------|
--------6--6-----5--5--5--|--------8--8-----6--6--6--|
--0--0--------0-----------|--0--0--------0-----------|


  E  E  E  E  E  E  E  E     E  E  E  E  E  E  E  E   
--------------------------|--------------------------|
--------------------------|--------------------------|
--------6--6-----5--5--5--|--------5--5--5--5--6--6--|
--0--0--------0-----------|--0--0--------------------|


  E  E  E  E  E  E  E  E     E  E  E  E  E  E  E  E   
--------------------------|--------------------------|
--------------------------|--------------------------|
--------------------------|--------------------------|
--0--0--0--0--0--0--0--0--|--0--0--0--0--0--0--0--0--|


  E  E  E  E  E  E  E  E     E  E  E  E  E  E  E  E   
--------------------------|--------------------------|
--------------------------|--------------------------|
--------------------------|--------------------------|
--8--8--8--8--8--8--8--8--|--5--5--5--5--5--5--5--5--|


  E  E  E  E  E  E  E  E     E  E  E  E  E  E  E  E   
--------------------------|--------------------------|
--------------------------|--------------------------|
--------------------------|--------------------------|
--0--0--0--0--0--0--0--0--|--0--0--0--0--0--0--0--0--|


   E   E   E   E   E   E   E   E     E  E  E  E  E  E  E  E   
----------------------------------|--------------------------|
----------------------------------|--------------------------|
----------------------------------|--------------------------|
--10--10--10--10--10--10--10--10--|--5--5--5--5--5--5--5--5--|


  W                   W                   W                   W                 
-------------------|-------------------|-------------------|-------------------|
-------------------|-------------------|-------------------|-------------------|
-------------------|-------------------|-------------------|-------------------|
--0----------------|--L----------------|--8----------------|--5----------------|


  W                    W                    W                 
-------------------|--------------------|--------------------|
-------------------|--------------------|--------------------|
-------------------|--------------------|--------------------|
--0----------------|---L----------------|--10----------------|


  W                   W                   W                   W                 
-------------------|-------------------|-------------------|-------------------|
-------------------|-------------------|-------------------|-------------------|
-------------------|-------------------|-------------------|-------------------|
--5----------------|--0----------------|--L----------------|--8----------------|


  W                   W                    W                 
-------------------|-------------------|--------------------|
-------------------|-------------------|--------------------|
-------------------|-------------------|--------------------|
--5----------------|--0----------------|---L----------------|


   W                   W                   W                 
--------------------|-------------------|-------------------|
--------------------|-------------------|-------------------|
--------------------|-------------------|-------------------|
--10----------------|--5----------------|--0----------------|


  W                   W                   W                   W                 
-------------------|-------------------|-------------------|-------------------|
-------------------|-------------------|-------------------|-------------------|
-------------------|-------------------|-------------------|-------------------|
--L----------------|--L----------------|--L----------------|--0----------------|


  W                   W                   W                   W                 
-------------------|-------------------|-------------------|-------------------|
-------------------|-------------------|-------------------|-------------------|
-------------------|-------------------|-------------------|-------------------|
--L----------------|--L----------------|--L----------------|--0----------------|


                                               |--3--|  |--3--|  |--3--|   
  W                   W                   Q    E  E  E  E  E  E  E  E  E   
-------------------|-------------------|----------------------------------|
-------------------|-------------------|----------------------------------|
-------------------|-------------------|----------------------------------|
--L----------------|--L----------------|--L----0--0--0--0--0--0--0--0--0--|


  W                   W                   W                 
-------------------|-------------------|-------------------|
-------------------|-------------------|-------------------|
-------------------|-------------------|-------------------|
--0----------------|--L----------------|--L----------------|


       |--3--|  |--3--|  |--3--|                                           
  Q    E  E  E  E  E  E  E  E  E     W                   W                 
----------------------------------|-------------------|-------------------|
----------------------------------|-------------------|-------------------|
----------------------------------|-------------------|-------------------|
--L----0--0--0--0--0--0--0--0--0--|--0----------------|--L----------------|


                           |--3--|  |--3--|  |--3--|                       
  W                   Q    E  E  E  E  E  E  E  E  E     W                 
-------------------|----------------------------------|-------------------|
-------------------|----------------------------------|-------------------|
-------------------|----------------------------------|-------------------|
--L----------------|--L----0--0--0--0--0--0--0--0--0--|--0----------------|


                                               |--3--|  |--3--|  |--3--|   
  W                   W                   Q    E  E  E  E  E  E  E  E  E   
-------------------|-------------------|----------------------------------|
-------------------|-------------------|----------------------------------|
-------------------|-------------------|----------------------------------|
--L----------------|--L----------------|--L----0--0--0--0--0--0--0--0--0--|


  W                   W                   W                 
-------------------|-------------------|-------------------|
-------------------|-------------------|-------------------|
-------------------|-------------------|-------------------|
--0----------------|--L----------------|--L----------------|


       |--3--|  |--3--|  |--3--|                                           
  Q    E  E  E  E  E  E  E  E  E     W                   W                 
----------------------------------|-------------------|-------------------|
----------------------------------|-------------------|-------------------|
----------------------------------|-------------------|-------------------|
--L----0--0--0--0--0--0--0--0--0--|--0----------------|--L----------------|


                           |--3--|  |--3--|  |--3--|                       
  W                   Q    E  E  E  E  E  E  E  E  E     W                 
-------------------|----------------------------------|-------------------|
-------------------|----------------------------------|-------------------|
-------------------|----------------------------------|-------------------|
--L----------------|--L----0--0--0--0--0--0--0--0--0--|--0----------------|


  W                   W                   W                  
-------------------|-------------------|-------------------||
-------------------|-------------------|-------------------||
-------------------|-------------------|-------------------||
--L----------------|--L----------------|--L----------------||




Duration Legend
---------------
W - whole
H - half
Q - quarter
E - 8th
S - 16th
T - 32nd
X - 64th
. - note dotted
|-n-|  - n-tuplets


Tablature Legend
----------------
L - tied note
x - dead note
g - grace note
(n) - ghost note
> - accentuded note
NH - natural harmonic
AH - artificial harmonic
TH - tapped harmonic
SH - semi harmonic
PH - pitch harmonic
h - hammer on
p - pull off
b - bend
br - bendRelease
pb - preBend
pbr - preBendRelease
brb - bendReleaseBend
\n/ - tremolo bar dip
\n - tremolo bar dive
-/n - tremolo bar Release up
/n\ - tremolo bar inverted dip
/n - tremolo bar return
-\n - tremolo bar Release down
S - shift slide
s - legato slide
/ -  slide into from below or out of upwards
\ -  slide into from above or out of downwards
~ - vibrato
W - wide vibrato
tr - trill
TP - tremolo picking
T - tapping
S - slap
P - pop
< - fade in
^ - brush up
v - brush down





Comments


Popular Heaven Shall Burn tabs & chords
Black Tears Bass Tabs
Profane Believers Bass Tabs
Stay The Course 2 Bass Tabs
Voice Of The Voiceless 2 Bass Tabs
Atonement 1 Tabs
Awoken Tabs
Black Tears Tabs
Dream Is Dead Tabs
Dying In Silence Tabs
Voice Of The Voiceless Tabs


Song lyrics



↑ Back to top | Tablatures and chords are parodies/interpretations of the original songs. You may use it for private study, scholarship, research or language learning purposes only
© 2014 AZChords.com Contact us | Privacy policy | DMCA | Add/correct tabs | Request tabs | Top 50 tabs