>
 >
Counterweight

Counterweight Guitar Tabs

Heaven Shall Burn - Counterweight chords, tabs, tablatures, lyrics

Guitar lessons | Add/correct | Request | Top 50 tabs Artists:  A B C D E F G H I J K L M N O P Q R S T U V W X Y Z 0-9

Counterweight Guitar Tabs – Heaven Shall Burn

CD, Sheet music, Poster

Do you like Counterweight? Share with your friends now
Bass TabsTabs
                                Counterweight                                   


                                                               Heaven Shall Burn
Guitar 1



     Press F5!!                                
     S          S S S S S S S S S S S S S S S  
D||-------------------------------------------|
A||-------------------------------------------|
F||-------------------------------------------|
C||-------------------------------------------|
G||-------------------6-6-6-6-----5-5-5-5-----|
C||--0----------0-0-0---------0-0---------0-0-|


  S S S S S S S S S S S S S S S S    S S S S S S S S S S S S S S S S  
----------------------------------|----------------------------------|
----------------------------------|----------------------------------|
----------------------------------|----------------------------------|
----------------------------------|----------------------------------|
--8-8-8-8-----6-6-6-6-----5-5-6-6-|----------6-6-6-6-----5-5-5-5-----|
----------0-0---------0-0---------|--0-0-0-0---------0-0---------0-0-|


  S S S S S S S S S S S S S S S S    S S S S S S S S S S S S S S S S  
----------------------------------|----------------------------------|
----------------------------------|----------------------------------|
----------------------------------|----------------------------------|
----------------------------------|----------------------------------|
--8-8-8-8-8-8-6-6-6-6-6-6-5-5-5-5-|----------6-6-6-6-----5-5-5-5-----|
----------------------------------|--0-0-0-0---------0-0---------0-0-|


  S S S S S S S S S S S S S S S S    S S S S S S S S S S S S S S S S  
----------------------------------|----------------------------------|
----------------------------------|----------------------------------|
----------------------------------|----------------------------------|
----------------------------------|----------------------------------|
--8-8-8-8-----6-6-6-6-----5-5-6-6-|--------------5-5-5-5-5-5-6-6-6-6-|
----------0-0---------0-0---------|--5-5-5-5-5-5---------------------|


  S S S S S S S S S S S S S S S S    S S S S S S S S S S S S S S S S  
----------------------------------|----------------------------------|
----------------------------------|----------------------------------|
----------------------------------|----------------------------------|
----------------------------------|----------------------------------|
--------------3-3-3-3-3-3-5-5-5-5-|----------6-6-6-6-----5-5-5-5-----|
--3-3-3-3-3-3---------------------|--0-0-0-0---------0-0---------0-0-|


  S S S S S S S S S S S S S S S S    S S S S S S S S S S S S S S S S  
----------------------------------|----------------------------------|
----------------------------------|----------------------------------|
----------------------------------|----------------------------------|
----------------------------------|----------------------------------|
--8-8-8-8-----6-6-6-6-----5-5-6-6-|----------6-6-6-6-----5-5-5-5-----|
----------0-0---------0-0---------|--0-0-0-0---------0-0---------0-0-|


  S S S S S S S S S S S S S S S S    S S S S S S S S S S S S S S S S  
----------------------------------|----------------------------------|
----------------------------------|----------------------------------|
----------------------------------|----------------------------------|
----------------------------------|----------------------------------|
--8-8-8-8-8-8-6-6-6-6-6-6-5-5-5-5-|----------6-6-6-6-----5-5-5-5-----|
----------------------------------|--0-0-0-0---------0-0---------0-0-|


  S S S S S S S S S S S S S S S S    S S S S S S S S S S S S S S S S  
----------------------------------|----------------------------------|
----------------------------------|----------------------------------|
----------------------------------|----------------------------------|
----------------------------------|----------------------------------|
--8-8-8-8-----6-6-6-6-----5-5-6-6-|--------------5-5-5-5-5-5-6-6-6-6-|
----------0-0---------0-0---------|--5-5-5-5-5-5---------------------|


  S S S S S S S S S S S S S S S S    Q     E   E   Q     E   E   
----------------------------------|-----------------------------|
----------------------------------|-----------------------------|
----------------------------------|-----------------------------|
----------------------------------|-----------------------------|
--------------3-3-3-3-3-3-5-5-5-5-|-------10--12--12----10--12--|
--3-3-3-3-3-3---------------------|--0--------------------------|


   Q     E   Q     E  Q       Q     E   E   Q     E   E   
---------------------------|-----------------------------|
---------------------------|-----------------------------|
---------------------------|-----------------------------|
---------------------------|-----------------------------|
--12----13--12----10--8----|-------10--12--12----10--12--|
---------------------------|--0--------------------------|


   Q     Q     E  Q.        Q     E   E   Q     E   E   
-------------------------|-----------------------------|
-------------------------|-----------------------------|
-------------------------|-----------------------------|
-------------------------|-----------------------------|
--13----12----10--8------|-------10--12--12----10--12--|
-------------------------|--0--------------------------|


   Q     E   Q     E  Q        Q    Q    E   Q.        Q    Q     E  Q.      
---------------------------|------------------------|-----------------------|
---------------------------|------------------------|-----------------------|
---------------------------|------------------------|-----------------------|
---------------------------|--10----8----7----------|--8----7---------------|
--12----13--12----10--8----|----------------10------|------------10--8------|
---------------------------|------------------------|-----------------------|


  Q     E   E   Q     E   E      Q     E   Q     E  Q     
-----------------------------|---------------------------|
-----------------------------|---------------------------|
-----------------------------|---------------------------|
-----------------------------|---------------------------|
-------10--12--12----10--12--|--12----13--12----10--8----|
--0--------------------------|---------------------------|


  Q     E   E   Q     E   E      Q     Q     E  Q.      
-----------------------------|-------------------------|
-----------------------------|-------------------------|
-----------------------------|-------------------------|
-----------------------------|-------------------------|
-------10--12--12----10--12--|--13----12----10--8------|
--0--------------------------|-------------------------|


  Q     E   E   Q     E   E      Q     E   Q     E  Q     
-----------------------------|---------------------------|
-----------------------------|---------------------------|
-----------------------------|---------------------------|
-----------------------------|---------------------------|
-------10--12--12----10--12--|--12----13--12----10--8----|
--0--------------------------|---------------------------|


   Q    Q    E   Q.        Q    Q     E  Q.      
------------------------|-----------------------|
------------------------|-----------------------|
------------------------|-----------------------|
--10----8----7----------|--8----7---------------|
----------------10------|------------10--8------|
------------------------|-----------------------|


  S S S S S S S S S S S S S S S S    S S S S S S S S S S S S S S S S  
----------------------------------|----------------------------------|
----------------------------------|----------------------------------|
----------------------------------|----------------------------------|
----------------------------------|----------------------------------|
----------------------------------|------------------8-8-8-8-7-7-7-7-|
--0-0-0-0-0-0-0-0-0-0-0-0-0-0-0-0-|--0-0-0-0-0-0-0-0-----------------|


  S S S S S S S S S S S S S S S S     S  S  S  S  S  S S S S S S S  S  S  S  S  
----------------------------------|--------------------------------------------|
----------------------------------|--------------------------------------------|
----------------------------------|--------------------------------------------|
----------------------------------|--------------------------------------------|
----------------------------------|--10-10-10-10-10-10-8-8-8-8-8-8-------------|
--8-8-8-8-8-8-8-8-8-8-8-8-8-8-8-8-|--------------------------------10-10-10-10-|


  S S S S S S S S S S S S S S S S    S S S S S S S S S S S S S S S S  
----------------------------------|----------------------------------|
----------------------------------|----------------------------------|
----------------------------------|----------------------------------|
----------------------------------|----------------------------------|
----------------------------------|------------------8-8-8-8-7-7-7-7-|
--0-0-0-0-0-0-0-0-0-0-0-0-0-0-0-0-|--0-0-0-0-0-0-0-0-----------------|


  S S S S S S S S S S S S S S S S    S S S S S S S S S S S S S S S S  
----------------------------------|----------------------------------|
----------------------------------|----------------------------------|
----------------------------------|----------------------------------|
----------------------------------|----------------------------------|
----------------------------------|----------------------------------|
--8-8-8-8-8-8-8-8-8-8-8-8-8-8-8-8-|--3-3-3-3-3-3-3-3-3-3-3-3-3-3-3-3-|


  S S S S S S S S S S S S S S S S    S S S S S S S S S S S S S S S S  
----------------------------------|----------------------------------|
----------------------------------|----------------------------------|
----------------------------------|----------------------------------|
----------------------------------|----------------------------------|
----------------------------------|------------------8-8-8-8-7-7-7-7-|
--0-0-0-0-0-0-0-0-0-0-0-0-0-0-0-0-|--0-0-0-0-0-0-0-0-----------------|


  S S S S S S S S S S S S S S S S     S  S  S  S  S  S S S S S S S  S  S  S  S  
----------------------------------|--------------------------------------------|
----------------------------------|--------------------------------------------|
----------------------------------|--------------------------------------------|
----------------------------------|--------------------------------------------|
----------------------------------|--10-10-10-10-10-10-8-8-8-8-8-8-------------|
--8-8-8-8-8-8-8-8-8-8-8-8-8-8-8-8-|--------------------------------10-10-10-10-|


  S S S S S S S S S S S S S S S S    S S S S S S S S S S S S S S S S  
----------------------------------|----------------------------------|
----------------------------------|----------------------------------|
----------------------------------|----------------------------------|
----------------------------------|----------------------------------|
----------------------------------|------------------8-8-8-8-7-7-7-7-|
--0-0-0-0-0-0-0-0-0-0-0-0-0-0-0-0-|--0-0-0-0-0-0-0-0-----------------|


  S S S S S S S S S S S S S S S S    S S S S S S S S S S S S S S S S  
----------------------------------|----------------------------------|
----------------------------------|----------------------------------|
----------------------------------|----------------------------------|
----------------------------------|----------------------------------|
----------------------------------|----------------------------------|
--8-8-8-8-8-8-8-8-8-8-8-8-8-8-8-8-|--3-3-3-3-3-3-3-3-3-3-3-3-3-3-3-3-|


  S S S S S S S S S S S S S S S S    S S S S S S S S S S S S S S S S  
----------------------------------|----------------------------------|
----------------------------------|----------------------------------|
----------------------------------|----------------------------------|
----------------------------------|----------------------------------|
----------6-6-6-6-----5-5-5-5-----|--8-8-8-8-----6-6-6-6-----5-5-6-6-|
--0-0-0-0---------0-0---------0-0-|----------0-0---------0-0---------|


  S S S S S S S S S S S S S S S S    S S S S S S S S S S S S S S S S  
----------------------------------|----------------------------------|
----------------------------------|----------------------------------|
----------------------------------|----------------------------------|
----------------------------------|----------------------------------|
----------6-6-6-6-----5-5-5-5-----|--8-8-8-8-8-8-6-6-6-6-6-6-5-5-5-5-|
--0-0-0-0---------0-0---------0-0-|----------------------------------|


  S S S S S S S S S S S S S S S S    S S S S S S S S S S S S S S S S  
----------------------------------|----------------------------------|
----------------------------------|----------------------------------|
----------------------------------|----------------------------------|
----------------------------------|----------------------------------|
----------6-6-6-6-----5-5-5-5-----|--8-8-8-8-----6-6-6-6-----5-5-6-6-|
--0-0-0-0---------0-0---------0-0-|----------0-0---------0-0---------|


  S S S S S S S S S S S S S S S S    S S S S S S S S S S S S S S S S  
----------------------------------|----------------------------------|
----------------------------------|----------------------------------|
----------------------------------|----------------------------------|
----------------------------------|----------------------------------|
--------------5-5-5-5-5-5-6-6-6-6-|--------------3-3-3-3-3-3-5-5-5-5-|
--5-5-5-5-5-5---------------------|--3-3-3-3-3-3---------------------|


  S S S S S S S S S S S S S S S S    S S S S S S S S S S S S S S S S  
----------------------------------|----------------------------------|
----------------------------------|----------------------------------|
----------------------------------|----------------------------------|
----------------------------------|----------------------------------|
----------6-6-6-6-----5-5-5-5-----|--8-8-8-8-----6-6-6-6-----5-5-6-6-|
--0-0-0-0---------0-0---------0-0-|----------0-0---------0-0---------|


  S S S S S S S S S S S S S S S S    S S S S S S S S S S S S S S S S  
----------------------------------|----------------------------------|
----------------------------------|----------------------------------|
----------------------------------|----------------------------------|
----------------------------------|----------------------------------|
----------6-6-6-6-----5-5-5-5-----|--8-8-8-8-8-8-6-6-6-6-6-6-5-5-5-5-|
--0-0-0-0---------0-0---------0-0-|----------------------------------|


  S S S S S S S S S S S S S S S S    S S S S S S S S S S S S S S S S  
----------------------------------|----------------------------------|
----------------------------------|----------------------------------|
----------------------------------|----------------------------------|
----------------------------------|----------------------------------|
----------6-6-6-6-----5-5-5-5-----|--8-8-8-8-----6-6-6-6-----5-5-6-6-|
--0-0-0-0---------0-0---------0-0-|----------0-0---------0-0---------|


  S S S S S S S S S S S S S S S S    S S S S S S S S S S S S S S S S  
----------------------------------|----------------------------------|
----------------------------------|----------------------------------|
----------------------------------|----------------------------------|
----------------------------------|----------------------------------|
--------------5-5-5-5-5-5-6-6-6-6-|--------------3-3-3-3-3-3-5-5-5-5-|
--5-5-5-5-5-5---------------------|--3-3-3-3-3-3---------------------|


  S S S S S S S S S S S S S S S S    S S S S S S S S S S S S S S S S  
----------------------------------|----------------------------------|
----------------------------------|----------------------------------|
----------------------------------|----------------------------------|
----------------------------------|----------------------------------|
----------6-6-6-6-----5-5-5-5-----|--8-8-8-8-----6-6-6-6-----5-5-6-6-|
--0-0-0-0---------0-0---------0-0-|----------0-0---------0-0---------|


  S S S S S S S S S S S S S S S S    S S S S S S S S S S S S S S S S  
----------------------------------|----------------------------------|
----------------------------------|----------------------------------|
----------------------------------|----------------------------------|
----------------------------------|----------------------------------|
----------6-6-6-6-----5-5-5-5-----|--8-8-8-8-8-8-6-6-6-6-6-6-5-5-5-5-|
--0-0-0-0---------0-0---------0-0-|----------------------------------|


  S S S S S S S S S S S S S S S S    S S S S S S S S S S S S S S S S  
----------------------------------|----------------------------------|
----------------------------------|----------------------------------|
----------------------------------|----------------------------------|
----------------------------------|----------------------------------|
----------6-6-6-6-----5-5-5-5-----|--8-8-8-8-----6-6-6-6-----5-5-6-6-|
--0-0-0-0---------0-0---------0-0-|----------0-0---------0-0---------|


  S S S S S S S S S S S S S S S S    S S S S S S S S S S S S S S S S  
----------------------------------|----------------------------------|
----------------------------------|----------------------------------|
----------------------------------|----------------------------------|
----------------------------------|----------------------------------|
--------------5-5-5-5-5-5-6-6-6-6-|--------------3-3-3-3-3-3-5-5-5-5-|
--5-5-5-5-5-5---------------------|--3-3-3-3-3-3---------------------|


  S S S S S S S S S S S S S S S S    S S S S S S S S S S S S S S S S  
----------------------------------|----------------------------------|
----------------------------------|----------------------------------|
----------------------------------|----------------------------------|
----------------------------------|----------------------------------|
----------6-6-6-6-----5-5-5-5-5-5-|----------8-8-8-8-----6-6-6-6-6-6-|
--0-0-0-0---------0-0-------------|--0-0-0-0---------0-0-------------|


  S S S S S S S S S S S S S S S S    S S S S S S S S S S S S S S S S  
----------------------------------|----------------------------------|
----------------------------------|----------------------------------|
----------------------------------|----------------------------------|
----------------------------------|----------------------------------|
----------6-6-6-6-----5-5-5-5-5-5-|----------5-5-5-5-5-5-5-5-6-6-6-6-|
--0-0-0-0---------0-0-------------|--0-0-0-0-------------------------|


  S S S S S S S S S S S S S S S S    S S S S S S S S S S S S S S S S  
----------------------------------|----------------------------------|
----------------------------------|----------------------------------|
----------------------------------|----------------------------------|
----------------------------------|----------------------------------|
----------6-6-6-6-----5-5-5-5-5-5-|----------8-8-8-8-----6-6-6-6-6-6-|
--0-0-0-0---------0-0-------------|--0-0-0-0---------0-0-------------|


  S S S S S S S S S S S S S S S S    S S S S S S S S S S S S S S S S  
----------------------------------|----------------------------------|
----------------------------------|----------------------------------|
----------------------------------|----------------------------------|
----------------------------------|----------------------------------|
----------6-6-6-6-----5-5-5-5-5-5-|----------5-5-5-5-5-5-5-5-6-6-6-6-|
--0-0-0-0---------0-0-------------|--0-0-0-0-------------------------|


  S S S S  S  S  S  S  S  S  S  S  S  S  S  S  
----------------------------------------------|
----------------------------------------------|
----------------------------------------------|
----------------------------------------------|
----------10-10-12-12-12-12-12-12-10-10-12-12-|
--0-0-0-0-------------------------------------|


   S  S  S  S  S  S  S  S  S  S  S  S S S S S  
----------------------------------------------|
----------------------------------------------|
----------------------------------------------|
----------------------------------------------|
--12-12-12-12-13-13-12-12-12-12-10-10-8-8-8-8-|
----------------------------------------------|


  S S S S  S  S  S  S  S  S  S  S  S  S  S  S  
----------------------------------------------|
----------------------------------------------|
----------------------------------------------|
----------------------------------------------|
----------10-10-12-12-12-12-12-12-10-10-12-12-|
--0-0-0-0-------------------------------------|


   S  S  S  S  S  S  S  S  S  S S S S S S S  
--------------------------------------------|
--------------------------------------------|
--------------------------------------------|
--------------------------------------------|
--13-13-13-13-12-12-12-12-10-10-8-8-8-8-8-8-|
--------------------------------------------|


  S S S S  S  S  S  S  S  S  S  S  S  S  S  S  
----------------------------------------------|
----------------------------------------------|
----------------------------------------------|
----------------------------------------------|
----------10-10-12-12-12-12-12-12-10-10-12-12-|
--0-0-0-0-------------------------------------|


   S  S  S  S  S  S  S  S  S  S  S  S S S S S  
----------------------------------------------|
----------------------------------------------|
----------------------------------------------|
----------------------------------------------|
--12-12-12-12-13-13-12-12-12-12-10-10-8-8-8-8-|
----------------------------------------------|


   S  S  S  S S S S S S S  S  S  S  S  S  S  
--------------------------------------------|
--------------------------------------------|
--------------------------------------------|
--10-10-10-10-8-8-8-8-7-7-------------------|
--------------------------10-10-10-10-10-10-|
--------------------------------------------|


  S S S S S S S S  S  S S S S S S S    Q     E   E   Q     E   E   
------------------------------------|-----------------------------|
------------------------------------|-----------------------------|
------------------------------------|-----------------------------|
--8-8-8-8-7-7-7-7-------------------|-----------------------------|
------------------10-10-8-8-8-8-8-8-|-------10--12--12----10--12--|
------------------------------------|--0--------------------------|


   Q     E   Q     E  Q       Q     E   E   Q     E   E   
---------------------------|-----------------------------|
---------------------------|-----------------------------|
---------------------------|-----------------------------|
---------------------------|-----------------------------|
--12----13--12----10--8----|-------10--12--12----10--12--|
---------------------------|--0--------------------------|


   Q     Q     E  Q.        Q     E   E   Q     E   E   
-------------------------|-----------------------------|
-------------------------|-----------------------------|
-------------------------|-----------------------------|
-------------------------|-----------------------------|
--13----12----10--8------|-------10--12--12----10--12--|
-------------------------|--0--------------------------|


   Q     E   Q     E  Q        Q    Q    E   Q.        Q    Q     E  Q.      
---------------------------|------------------------|-----------------------|
---------------------------|------------------------|-----------------------|
---------------------------|------------------------|-----------------------|
---------------------------|--10----8----7----------|--8----7---------------|
--12----13--12----10--8----|----------------10------|------------10--8------|
---------------------------|------------------------|-----------------------|


  S S S S S S S S S S S S S S S S    S S S S S S S S S S S S S S S S  
----------------------------------|----------------------------------|
----------------------------------|----------------------------------|
----------------------------------|----------------------------------|
----------------------------------|----------------------------------|
----------------------------------|------------------8-8-8-8-7-7-7-7-|
--0-0-0-0-0-0-0-0-0-0-0-0-0-0-0-0-|--0-0-0-0-0-0-0-0-----------------|


  S S S S S S S S S S S S S S S S     S  S  S  S  S  S S S S S S S  S  S  S  S  
----------------------------------|--------------------------------------------|
----------------------------------|--------------------------------------------|
----------------------------------|--------------------------------------------|
----------------------------------|--------------------------------------------|
----------------------------------|--10-10-10-10-10-10-8-8-8-8-8-8-------------|
--8-8-8-8-8-8-8-8-8-8-8-8-8-8-8-8-|--------------------------------10-10-10-10-|


  S S S S S S S S S S S S S S S S    S S S S S S S S S S S S S S S S  
----------------------------------|----------------------------------|
----------------------------------|----------------------------------|
----------------------------------|----------------------------------|
----------------------------------|----------------------------------|
----------------------------------|------------------8-8-8-8-7-7-7-7-|
--0-0-0-0-0-0-0-0-0-0-0-0-0-0-0-0-|--0-0-0-0-0-0-0-0-----------------|


  S S S S S S S S S S S S S S S S    S S S S S S S S S S S S S S S S  
----------------------------------|----------------------------------|
----------------------------------|----------------------------------|
----------------------------------|----------------------------------|
----------------------------------|----------------------------------|
----------------------------------|----------------------------------|
--8-8-8-8-8-8-8-8-8-8-8-8-8-8-8-8-|--3-3-3-3-3-3-3-3-3-3-3-3-3-3-3-3-|


  S S S S S S S S S S S S S S S S    S S S S S S S S S S S S S S S S  
----------------------------------|----------------------------------|
----------------------------------|----------------------------------|
----------------------------------|----------------------------------|
----------------------------------|----------------------------------|
----------6-6-6-6-----5-5-5-5-5-5-|----------8-8-8-8-----6-6-6-6-6-6-|
--0-0-0-0---------0-0-------------|--0-0-0-0---------0-0-------------|


  S S S S S S S S S S S S S S S S    S S S S S S S S S S S S S S S S  
----------------------------------|----------------------------------|
----------------------------------|----------------------------------|
----------------------------------|----------------------------------|
----------------------------------|----------------------------------|
----------6-6-6-6-----5-5-5-5-5-5-|----------5-5-5-5-5-5-5-5-6-6-6-6-|
--0-0-0-0---------0-0-------------|--0-0-0-0-------------------------|


  S S S S S S S S S S S S S S S S    S S S S S S S S S S S S S S S S  
----------------------------------|----------------------------------|
----------------------------------|----------------------------------|
----------------------------------|----------------------------------|
----------------------------------|----------------------------------|
----------6-6-6-6-----5-5-5-5-5-5-|----------8-8-8-8-----6-6-6-6-6-6-|
--0-0-0-0---------0-0-------------|--0-0-0-0---------0-0-------------|


  S S S S S S S S S S S S S S S S    S S S S S S S S S S S S S S S S  
----------------------------------|----------------------------------|
----------------------------------|----------------------------------|
----------------------------------|----------------------------------|
----------------------------------|----------------------------------|
----------6-6-6-6-----5-5-5-5-5-5-|----------5-5-5-5-5-5-5-5-6-6-6-6-|
--0-0-0-0---------0-0-------------|--0-0-0-0-------------------------|


  S S S S S S S S S S S S S S S S    S S S S S S S S S S S S S S S S  
----------------------------------|----------------------------------|
----------------------------------|----------------------------------|
----------------------------------|----------------------------------|
----------------------------------|----------------------------------|
----------6-6-6-6-----5-5-5-5-5-5-|----------8-8-8-8-----6-6-6-6-6-6-|
--0-0-0-0---------0-0-------------|--0-0-0-0---------0-0-------------|


  S S S S S S S S S S S S S S S S    S S S S S S S S S S S S S S S S  
----------------------------------|----------------------------------|
----------------------------------|----------------------------------|
----------------------------------|----------------------------------|
----------------------------------|----------------------------------|
----------6-6-6-6-----5-5-5-5-5-5-|----------5-5-5-5-5-5-5-5-6-6-6-6-|
--0-0-0-0---------0-0-------------|--0-0-0-0-------------------------|


  S S S S S S S S S S S S S S S S    S S S S S S S S S S S S S S S S  
----------------------------------|----------------------------------|
----------------------------------|----------------------------------|
----------------------------------|----------------------------------|
----------------------------------|----------------------------------|
----------6-6-6-6-----5-5-5-5-5-5-|----------8-8-8-8-----6-6-6-6-6-6-|
--0-0-0-0---------0-0-------------|--0-0-0-0---------0-0-------------|


  S S S S S S S S S S S S S S S S    S S S S S S S S S S S S S S S S  
----------------------------------|----------------------------------|
----------------------------------|----------------------------------|
----------------------------------|----------------------------------|
----------------------------------|----------------------------------|
----------6-6-6-6-----5-5-5-5-5-5-|----------5-5-5-5-5-5-5-5-6-6-6-6-|
--0-0-0-0---------0-0-------------|--0-0-0-0-------------------------|


  S S S S  S  S  S  S  S  S  S  S  S  S  S  S  
----------------------------------------------|
----------------------------------------------|
----------------------------------------------|
----------------------------------------------|
----------10-10-12-12-12-12-12-12-10-10-12-12-|
--0-0-0-0-------------------------------------|


   S  S  S  S  S  S  S  S  S  S  S  S S S S S  
----------------------------------------------|
----------------------------------------------|
----------------------------------------------|
----------------------------------------------|
--12-12-12-12-13-13-12-12-12-12-10-10-8-8-8-8-|
----------------------------------------------|


  S S S S  S  S  S  S  S  S  S  S  S  S  S  S  
----------------------------------------------|
----------------------------------------------|
----------------------------------------------|
----------------------------------------------|
----------10-10-12-12-12-12-12-12-10-10-12-12-|
--0-0-0-0-------------------------------------|


   S  S  S  S  S  S  S  S  S  S S S S S S S  
--------------------------------------------|
--------------------------------------------|
--------------------------------------------|
--------------------------------------------|
--13-13-13-13-12-12-12-12-10-10-8-8-8-8-8-8-|
--------------------------------------------|


  S S S S  S  S  S  S  S  S  S  S  S  S  S  S  
----------------------------------------------|
----------------------------------------------|
----------------------------------------------|
----------------------------------------------|
----------10-10-12-12-12-12-12-12-10-10-12-12-|
--0-0-0-0-------------------------------------|


   S  S  S  S  S  S  S  S  S  S  S  S S S S S  
----------------------------------------------|
----------------------------------------------|
----------------------------------------------|
----------------------------------------------|
--12-12-12-12-13-13-12-12-12-12-10-10-8-8-8-8-|
----------------------------------------------|


   S  S  S  S S S S S S S  S  S  S  S  S  S  
--------------------------------------------|
--------------------------------------------|
--------------------------------------------|
--10-10-10-10-8-8-8-8-7-7-------------------|
--------------------------10-10-10-10-10-10-|
--------------------------------------------|


  S S S S S S S S  S  S S S S S S S    Q     E   E   Q     E   E   
------------------------------------|-----------------------------|
------------------------------------|-----------------------------|
------------------------------------|-----------------------------|
--8-8-8-8-7-7-7-7-------------------|-----------------------------|
------------------10-10-8-8-8-8-8-8-|-------10--12--12----10--12--|
------------------------------------|--0--------------------------|


   Q     E   Q     E  Q       Q     E   E   Q     E   E   
---------------------------|-----------------------------|
---------------------------|-----------------------------|
---------------------------|-----------------------------|
---------------------------|-----------------------------|
--12----13--12----10--8----|-------10--12--12----10--12--|
---------------------------|--0--------------------------|


   Q     Q     E  Q.        Q     E   E   Q     E   E   
-------------------------|-----------------------------|
-------------------------|-----------------------------|
-------------------------|-----------------------------|
-------------------------|-----------------------------|
--13----12----10--8------|-------10--12--12----10--12--|
-------------------------|--0--------------------------|


   Q     E   Q     E  Q        Q    Q    E   Q.        Q    Q     E  Q.      
---------------------------|------------------------|-----------------------|
---------------------------|------------------------|-----------------------|
---------------------------|------------------------|-----------------------|
---------------------------|--10----8----7----------|--8----7---------------|
--12----13--12----10--8----|----------------10------|------------10--8------|
---------------------------|------------------------|-----------------------|


  Q     E   E   Q     E   E      Q     E   Q     E  Q     
-----------------------------|---------------------------|
-----------------------------|---------------------------|
-----------------------------|---------------------------|
-----------------------------|---------------------------|
-------10--12--12----10--12--|--12----13--12----10--8----|
--0--------------------------|---------------------------|


  Q     E   E   Q     E   E      Q     Q     E  Q.      
-----------------------------|-------------------------|
-----------------------------|-------------------------|
-----------------------------|-------------------------|
-----------------------------|-------------------------|
-------10--12--12----10--12--|--13----12----10--8------|
--0--------------------------|-------------------------|


  Q     E   E   Q     E   E      Q     E   Q     E  Q     
-----------------------------|---------------------------|
-----------------------------|---------------------------|
-----------------------------|---------------------------|
-----------------------------|---------------------------|
-------10--12--12----10--12--|--12----13--12----10--8----|
--0--------------------------|---------------------------|


   Q    Q    E   Q.        Q    Q     E  Q.        Q     E   E   Q.     E   
------------------------|-----------------------|--------------------------|
------------------------|-----------------------|--------------------------|
------------------------|-----------------------|--------------------------|
--10----8----7----------|--8----7---------------|--------------------------|
----------------10------|------------10--8------|-------10--12--12------8--|
------------------------|-----------------------|--0-----------------------|


   E   E   Q    E  E  Q       Q     E   E   Q.      E   
---------------------------|---------------------------|
---------------------------|---------------------------|
---------------------------|---------------------------|
---------------------------|---------------------------|
---L--10--10----7--8--8----|-------10--12--12------13--|
---------------------------|--0------------------------|


  E   E   E   E   E  E  Q       Q     E   E   Q.     E   
-----------------------------|--------------------------|
-----------------------------|--------------------------|
-----------------------------|--------------------------|
-----------------------------|--------------------------|
--L--12--12--10--10--8--8----|-------10--12--12------8--|
-----------------------------|--0-----------------------|


   E   E   Q    E  E  Q       Q     E   E   Q.      E   
---------------------------|---------------------------|
---------------------------|---------------------------|
---------------------------|---------------------------|
---------------------------|---------------------------|
---L--10--10----7--8--8----|-------10--12--12------13--|
---------------------------|--0------------------------|


  E   E   E   E   E  E  Q       Q     E   E   Q.     E   
-----------------------------|--------------------------|
-----------------------------|--------------------------|
-----------------------------|--------------------------|
-----------------------------|--------------------------|
--L--12--12--10--10--8--8----|-------10--12--12------8--|
-----------------------------|--0-----------------------|


   E   E   Q    E  E  Q       Q     E   E   Q.      E   
---------------------------|---------------------------|
---------------------------|---------------------------|
---------------------------|---------------------------|
---------------------------|---------------------------|
---L--10--10----7--8--8----|-------10--12--12------13--|
---------------------------|--0------------------------|


  E   E   E   E   E  E  Q       Q     E   E   Q.     E   
-----------------------------|--------------------------|
-----------------------------|--------------------------|
-----------------------------|--------------------------|
-----------------------------|--------------------------|
--L--12--12--10--10--8--8----|-------10--12--12------8--|
-----------------------------|--0-----------------------|


   E   E   Q    E  E  Q       Q     E   E   Q.      E   
---------------------------|---------------------------|
---------------------------|---------------------------|
---------------------------|---------------------------|
---------------------------|---------------------------|
---L--10--10----7--8--8----|-------10--12--12------13--|
---------------------------|--0------------------------|


  E   E   E   E   E  E  Q       Q     E   E   Q.     E   
-----------------------------|--------------------------|
-----------------------------|--------------------------|
-----------------------------|--------------------------|
-----------------------------|--------------------------|
--L--12--12--10--10--8--8----|-------10--12--12------8--|
-----------------------------|--0-----------------------|


   E   E   Q    E  E  Q       Q     E   E   Q.      E   
---------------------------|---------------------------|
---------------------------|---------------------------|
---------------------------|---------------------------|
---------------------------|---------------------------|
---L--10--10----7--8--8----|-------10--12--12------13--|
---------------------------|--0------------------------|


  E   E   E   E   E  E  Q       Q     E   E   Q.     E   
-----------------------------|--------------------------|
-----------------------------|--------------------------|
-----------------------------|--------------------------|
-----------------------------|--------------------------|
--L--12--12--10--10--8--8----|-------10--12--12------8--|
-----------------------------|--0-----------------------|


   E   E   Q    E  E  Q       Q     E   E   Q.      E   
---------------------------|---------------------------|
---------------------------|---------------------------|
---------------------------|---------------------------|
---------------------------|---------------------------|
---L--10--10----7--8--8----|-------10--12--12------13--|
---------------------------|--0------------------------|


  E   E   E   E   E  E  Q       Q     E   E   Q.     E   
-----------------------------|--------------------------|
-----------------------------|--------------------------|
-----------------------------|--------------------------|
-----------------------------|--------------------------|
--L--12--12--10--10--8--8----|-------10--12--12------8--|
-----------------------------|--0-----------------------|


   E   E   Q    E  E  Q       Q     E   E   Q.      E   
---------------------------|---------------------------|
---------------------------|---------------------------|
---------------------------|---------------------------|
---------------------------|---------------------------|
---L--10--10----7--8--8----|-------10--12--12------13--|
---------------------------|--0------------------------|


  E   E   E   E   E  E  Q       Q     E   E   Q.     E   
-----------------------------|--------------------------|
-----------------------------|--------------------------|
-----------------------------|--------------------------|
-----------------------------|--------------------------|
--L--12--12--10--10--8--8----|-------10--12--12------8--|
-----------------------------|--0-----------------------|


   E   E   Q    E  E  Q       Q     E   E   Q.      E   
---------------------------|---------------------------|
---------------------------|---------------------------|
---------------------------|---------------------------|
---------------------------|---------------------------|
---L--10--10----7--8--8----|-------10--12--12------13--|
---------------------------|--0------------------------|


  E   E   E   E   E  E  Q       W                   W                 
-----------------------------|-------------------|-------------------|
-----------------------------|-------------------|-------------------|
-----------------------------|-------------------|-------------------|
-----------------------------|--0----------------|--L----------------|
--L--12--12--10--10--8--8----|--0----------------|--L----------------|
-----------------------------|--0----------------|--L----------------|


  W                   W                  
-------------------|-------------------||
-------------------|-------------------||
-------------------|-------------------||
--L----------------|--L----------------||
--L----------------|--L----------------||
--L----------------|--L----------------||




Duration Legend
---------------
W - whole
H - half
Q - quarter
E - 8th
S - 16th
T - 32nd
X - 64th
. - note dotted
|-n-|  - n-tuplets


Tablature Legend
----------------
L - tied note
x - dead note
g - grace note
(n) - ghost note
> - accentuded note
NH - natural harmonic
AH - artificial harmonic
TH - tapped harmonic
SH - semi harmonic
PH - pitch harmonic
h - hammer on
p - pull off
b - bend
br - bendRelease
pb - preBend
pbr - preBendRelease
brb - bendReleaseBend
\n/ - tremolo bar dip
\n - tremolo bar dive
-/n - tremolo bar Release up
/n\ - tremolo bar inverted dip
/n - tremolo bar return
-\n - tremolo bar Release down
S - shift slide
s - legato slide
/ -  slide into from below or out of upwards
\ -  slide into from above or out of downwards
~ - vibrato
W - wide vibrato
tr - trill
TP - tremolo picking
T - tapping
S - slap
P - pop
< - fade in
^ - brush up
v - brush down





Comments


Popular Heaven Shall Burn tabs & chords
Bleeding To Death Bass Tabs
The Only Truth Bass Tabs
The Weapon They Fear Bass Tabs
Architects Of The Apocalypse Tabs
Black Tears 1 Tabs
Bleeding To Death Tabs
Dying In Silence Tabs
Only Truth Tabs
Quest For Resistance Tabs
Stay The Course Tabs


Song lyrics



↑ Back to top | Tablatures and chords are parodies/interpretations of the original songs. You may use it for private study, scholarship, research or language learning purposes only
© 2014 AZChords.com Contact us | Privacy policy | DMCA | Add/correct tabs | Request tabs | Top 50 tabs