>
 >
Bleeding To Death

Bleeding To Death Guitar Tabs

Heaven Shall Burn - Bleeding To Death chords, tabs, tablatures, lyrics

Guitar lessons | Add/correct | Request | Top 50 tabs Artists:  A B C D E F G H I J K L M N O P Q R S T U V W X Y Z 0-9

Bleeding To Death Guitar Tabs – Heaven Shall Burn

CD, Sheet music, Poster

Do you like Bleeding To Death? Share with your friends now
Bass TabsTabs
Bleeding To Death                                 
Heaven Shall Burn
Guitar 1



     Press F5 !!!!!!!!!                                         
     PM                 PM PM PM PM PM PM PM PM    PM PM PM PM  
     S                  S  S  S  S  S  S  S  E  E  S  S  S  S   
D||------------------------------------------------------------|
A||------------------------------------------------------------|
F||------------------------------------------------------------|
C||------------------------------------------------------------|
G||------------------------------------------0-----------------|
C||--0------------------0--0--0--0--0--0--0--0-----0--0--0--0--|


  PM       PM    PM PM       PM PM PM PM PM PM PM PM PM    PM PM PM PM  
  E  E  E  E  E  E  E  E     S  S  S  S  S  S  S  S  E  E  S  S  S  S   
--------------------------|--------------------------------------------|
--------------------------|--------------------------------------------|
--------------------------|--------------------------------------------|
--------------------------|--------------------------------------------|
--0--------0-----0--0-----|--------------------------0-----------------|
--0--------0-----0--0-----|--0--0--0--0--0--0--0--0--0-----0--0--0--0--|


  PM                PM       PM PM PM PM PM PM PM PM PM    PM PM PM PM  
  E  E  E  E  E  E  E  E     S  S  S  S  S  S  S  S  E  E  S  S  S  S   
--------------------------|--------------------------------------------|
--------------------------|--------------------------------------------|
--------------------------|--------------------------------------------|
--------------------------|--------------------------------------------|
--0-----------------0-----|--------------------------0-----------------|
--0-----------------0-----|--0--0--0--0--0--0--0--0--0-----0--0--0--0--|


  PM       PM    PM PM       PM PM PM PM PM PM PM PM PM    PM PM PM PM  
  E  E  E  E  E  E  E  E     S  S  S  S  S  S  S  S  E  E  S  S  S  S   
--------------------------|--------------------------------------------|
--------------------------|--------------------------------------------|
--------------------------|--------------------------------------------|
--------------------------|--------------------------------------------|
--0--------0-----0--0-----|--------------------------0-----------------|
--0--------0-----0--0-----|--0--0--0--0--0--0--0--0--0-----0--0--0--0--|


  PM                PM                                        
  E  E  E  E  E  E  E  E     S S S S S S S S S S S S S S S S  
--------------------------|----------------------------------|
--------------------------|----------------------------------|
--------------------------|----------------------------------|
--------------------------|----------------------------------|
--0-----------------0-----|----------8-8-8-8-5-5-5-5---------|
--0-----------------0-----|--0-0-0-0-----------------0-0-0-0-|


  S S S S S S S S S S S S S S S S    S S S S S S S S S S S S S S S S  
----------------------------------|----------------------------------|
----------------------------------|----------------------------------|
----------------------------------|----------------------------------|
----------------------------------|----------------------------------|
--8-8-8-8-7-7-7-7-8-8-8-8-3-3-3-3-|----------8-8-8-8-5-5-5-5---------|
----------------------------------|--0-0-0-0-----------------0-0-0-0-|


  S S S S S S S S S S S S S S S S    S S S S S S S S S S S S S S S S  
----------------------------------|----------------------------------|
----------------------------------|----------------------------------|
----------------------------------|----------------------------------|
------------------5-5-5-5---------|----------------------------------|
--8-8-8-8-7-7-7-7---------8-8-8-8-|----------8-8-8-8-5-5-5-5---------|
----------------------------------|--0-0-0-0-----------------0-0-0-0-|


  S S S S S S S S S S S S S S S S    S S S S S S S S S S S S S S S S  
----------------------------------|----------------------------------|
----------------------------------|----------------------------------|
----------------------------------|----------------------------------|
----------------------------------|----------------------------------|
--8-8-8-8-7-7-7-7-8-8-8-8-3-3-3-3-|----------8-8-8-8-5-5-5-5---------|
----------------------------------|--0-0-0-0-----------------0-0-0-0-|


                                     PM PM PM PM      PM PM  
  S S S S S S S S S S S S S S S S    E  E  E  E  Q    E  E   
----------------------------------|-------------------------|
----------------------------------|-------------------------|
----------------------------------|-------------------------|
------------------5-5-5-5---------|--------------7----------|
--8-8-8-8-7-7-7-7---------8-8-8-8-|--------------8----------|
----------------------------------|--0--0--0--0-------0--0--|


  PM PM      PM PM         PM PM PM PM      PM PM    PM PM                   
  E  E  Q    E  E  Q       E  E  E  E  Q    E  E     E  E   Q     Q    Q     
------------------------|-------------------------|-------------------------|
------------------------|-------------------------|-------------------------|
------------------------|-------------------------|-------------------------|
--------7----------5----|--------------7----------|---------8-----8----7----|
--------8----------7----|--------------8----------|--------10----10----8----|
--0--0-------0--0-------|--0--0--0--0-------0--0--|--0--0-------------------|


  PM PM PM PM      PM PM    PM PM      PM PM         PM PM PM PM      PM PM  
  E  E  E  E  Q    E  E     E  E  Q    E  E  Q       E  E  E  E  Q    E  E   
-------------------------|------------------------|-------------------------|
-------------------------|------------------------|-------------------------|
-------------------------|------------------------|-------------------------|
--------------7----------|--------7----------5----|--------------7----------|
--------------8----------|--------8----------7----|--------------8----------|
--0--0--0--0-------0--0--|--0--0-------0--0-------|--0--0--0--0-------0--0--|


  PM PM                     PM PM PM PM      PM PM    PM PM      PM PM       
  E  E   Q     Q    Q       E  E  E  E  Q    E  E     E  E  Q    E  E  Q     
-------------------------|-------------------------|------------------------|
-------------------------|-------------------------|------------------------|
-------------------------|-------------------------|------------------------|
---------8-----8----7----|--------------7----------|--------7----------5----|
--------10----10----8----|--------------8----------|--------8----------7----|
--0--0-------------------|--0--0--0--0-------0--0--|--0--0-------0--0-------|


  PM PM PM PM      PM PM    PM PM                     PM PM PM PM      PM PM  
  E  E  E  E  Q    E  E     E  E   Q     Q    Q       E  E  E  E  Q    E  E   
-------------------------|-------------------------|-------------------------|
-------------------------|-------------------------|-------------------------|
-------------------------|-------------------------|-------------------------|
--------------7----------|---------8-----8----7----|--------------7----------|
--------------8----------|--------10----10----8----|--------------8----------|
--0--0--0--0-------0--0--|--0--0-------------------|--0--0--0--0-------0--0--|


  PM PM      PM PM         PM PM PM PM      PM PM    PM PM                   
  E  E  Q    E  E  Q       E  E  E  E  Q    E  E     E  E   Q     Q    Q     
------------------------|-------------------------|-------------------------|
------------------------|-------------------------|-------------------------|
------------------------|-------------------------|-------------------------|
--------7----------5----|--------------7----------|---------8-----8----7----|
--------8----------7----|--------------8----------|--------10----10----8----|
--0--0-------0--0-------|--0--0--0--0-------0--0--|--0--0-------------------|


  S S S S S S S S S S S S S S S S    S S S S S S S S S S S S S S S S  
----------------------------------|----------------------------------|
----------------------------------|----------------------------------|
----------------------------------|----------------------------------|
----------------------------------|----------------------------------|
----------8-8-8-8-5-5-5-5---------|--8-8-8-8-7-7-7-7-8-8-8-8-3-3-3-3-|
--0-0-0-0-----------------0-0-0-0-|----------------------------------|


  S S S S S S S S S S S S S S S S    S S S S S S S S S S S S S S S S  
----------------------------------|----------------------------------|
----------------------------------|----------------------------------|
----------------------------------|----------------------------------|
----------------------------------|------------------5-5-5-5---------|
----------8-8-8-8-5-5-5-5---------|--8-8-8-8-7-7-7-7---------8-8-8-8-|
--0-0-0-0-----------------0-0-0-0-|----------------------------------|


  S S S S S S S S S S S S S S S S    S S S S S S S S S S S S S S S S  
----------------------------------|----------------------------------|
----------------------------------|----------------------------------|
----------------------------------|----------------------------------|
----------------------------------|----------------------------------|
----------8-8-8-8-5-5-5-5---------|--8-8-8-8-7-7-7-7-8-8-8-8-3-3-3-3-|
--0-0-0-0-----------------0-0-0-0-|----------------------------------|


  S S S S S S S S S S S S S S S S    S S S S S S S S E  E  E  E   
----------------------------------|------------------------------|
----------------------------------|------------------------------|
----------------------------------|------------------------------|
----------------------------------|------------------5-----------|
----------8-8-8-8-5-5-5-5---------|--8-8-8-8-7-7-7-7-------------|
--0-0-0-0-----------------0-0-0-0-|------------------------------|


  S S S S S S S S S S S S S S S S    S S S S S S S S S S S S S S S S  
----------------------------------|----------------------------------|
----------------------------------|----------------------------------|
----------------------------------|----------------------------------|
----------------------------------|----------------------------------|
----------8-8-8-8-5-5-5-5---------|--8-8-8-8-7-7-7-7-8-8-8-8-3-3-3-3-|
--0-0-0-0-----------------0-0-0-0-|----------------------------------|


  S S S S S S S S S S S S S S S S    S S S S S S S S S S S S S S S S  
----------------------------------|----------------------------------|
----------------------------------|----------------------------------|
----------------------------------|----------------------------------|
----------------------------------|------------------5-5-5-5---------|
----------8-8-8-8-5-5-5-5---------|--8-8-8-8-7-7-7-7---------8-8-8-8-|
--0-0-0-0-----------------0-0-0-0-|----------------------------------|


  S S S S S S S S S S S S S S S S    S S S S S S S S S S S S S S S S  
----------------------------------|----------------------------------|
----------------------------------|----------------------------------|
----------------------------------|----------------------------------|
----------------------------------|----------------------------------|
----------8-8-8-8-5-5-5-5---------|--8-8-8-8-7-7-7-7-8-8-8-8-3-3-3-3-|
--0-0-0-0-----------------0-0-0-0-|----------------------------------|


  S S S S S S S S S S S S S S S S    S S S S S S S S S S S S S S S S  
----------------------------------|----------------------------------|
----------------------------------|----------------------------------|
----------------------------------|----------------------------------|
----------------------------------|------------------5-5-5-5---------|
----------8-8-8-8-5-5-5-5---------|--8-8-8-8-7-7-7-7---------8-8-8-8-|
--0-0-0-0-----------------0-0-0-0-|----------------------------------|


  PM PM PM PM    PM PM PM PM PM       PM PM    PM PM PM PM     
  S  S  E  E  E  S  S  E  E  E     E  E  E  E  S  S  E  E  E   
--------------------------------|-----------------------------|
--------------------------------|-----------------------------|
--------------------------------|-----------------------------|
--------------------------------|-----------------------------|
--------0--0-----------0--0--0--|-----0--0-----------0--0-----|
--0--0--0--0-----0--0--0--0--0--|-----0--0-----0--0--0--0-----|


  PM PM PM PM    PM PM PM PM PM       PM PM    PM PM PM PM     
  S  S  E  E  E  S  S  E  E  E     E  E  E  E  S  S  E  E  E   
--------------------------------|-----------------------------|
--------------------------------|-----------------------------|
--------------------------------|-----------------------------|
--------------------------------|-----------------------------|
--------0--0-----------0--0--0--|-----0--0-----------0--0-----|
--0--0--0--0-----0--0--0--0--0--|-----0--0-----0--0--0--0-----|


  PM PM PM PM    PM PM PM PM PM       PM PM    PM PM PM PM     
  S  S  E  E  E  S  S  E  E  E     E  E  E  E  S  S  E  E  E   
--------------------------------|-----------------------------|
--------------------------------|-----------------------------|
--------------------------------|-----------------------------|
--------------------------------|-----------------------------|
--------0--0-----------0--0--0--|-----0--0-----------0--0-----|
--0--0--0--0-----0--0--0--0--0--|-----0--0-----0--0--0--0-----|


  PM PM PM PM    PM PM PM PM PM       PM PM    PM           
  S  S  E  E  E  S  S  E  E  E     E  E  E  E  E  E  E  E   
--------------------------------|--------------------------|
--------------------------------|--------------------------|
--------------------------------|--------------------------|
--------------------------------|--------------------------|
--------0--0-----------0--0--0--|-----0--0-----0-----------|
--0--0--0--0-----0--0--0--0--0--|-----0--0-----0-----------|


  ^  v  ^  v  ^  v  ^  v     ^  v  ^  v  ^  v  ^  v   
  E  E  E  E  E  E  E  E     E  E  E  E  E  E  E  E   
--------------------------|--------------------------|
--------------------------|--------------------------|
--------------------------|--------------------------|
--8--8--8--8--8--8--8--8--|--8--8--8--8--8--8--8--8--|
--8--8--8--8--8--8--8--8--|--9--9--9--9--8--8--8--8--|
--8--8--8--8--8--8--8--8--|--8--8--8--8--8--8--8--8--|


  PM PM PM PM PM PM      PM PM PM    PM PM PM      PM PM PM       
  S  S  E  S  S  E  Q    S  S  E     S  S  E  Q    S  S  E  Q     
----------------------------------|------------------------------|
----------------------------------|------------------------------|
----------------------------------|------------------------------|
--------------------7-------------|-----------7-------------5----|
--------0--------0--8----------0--|--------0--8----------0--7----|
--0--0--0--0--0--0-------0--0--0--|--0--0--0-------0--0--0-------|


  PM PM PM PM PM PM      PM PM PM    PM PM PM                   
  S  S  E  S  S  E  Q    S  S  E     S  S  E   Q     Q    Q     
----------------------------------|----------------------------|
----------------------------------|----------------------------|
----------------------------------|----------------------------|
--------------------7-------------|------------8-----8----7----|
--------0--------0--8----------0--|--------0--10----10----8----|
--0--0--0--0--0--0-------0--0--0--|--0--0--0-------------------|


  ^  v  ^  v  ^  v  ^  v     ^  v  ^  v  ^  v  ^  v   
  E  E  E  E  E  E  E  E     E  E  E  E  E  E  E  E   
--------------------------|--------------------------|
--------------------------|--------------------------|
--------------------------|--------------------------|
--8--8--8--8--8--8--8--8--|--8--8--8--8--8--8--8--8--|
--8--8--8--8--8--8--8--8--|--9--9--9--9--8--8--8--8--|
--8--8--8--8--8--8--8--8--|--8--8--8--8--8--8--8--8--|


  PM PM PM PM PM PM      PM PM PM    PM PM PM      PM PM PM       
  S  S  E  S  S  E  Q    S  S  E     S  S  E  Q    S  S  E  Q     
----------------------------------|------------------------------|
----------------------------------|------------------------------|
----------------------------------|------------------------------|
--------------------7-------------|-----------7-------------5----|
--------0--------0--8----------0--|--------0--8----------0--7----|
--0--0--0--0--0--0-------0--0--0--|--0--0--0-------0--0--0-------|


  PM PM PM PM PM PM      PM PM PM    PM PM PM                   
  S  S  E  S  S  E  Q    S  S  E     S  S  E   Q     Q    Q     
----------------------------------|----------------------------|
----------------------------------|----------------------------|
----------------------------------|----------------------------|
--------------------7-------------|------------8-----8----7----|
--------0--------0--8----------0--|--------0--10----10----8----|
--0--0--0--0--0--0-------0--0--0--|--0--0--0-------------------|


  ^  v  ^  v  ^  v  ^  v     ^  v  ^  v  ^  v  ^  v   
  E  E  E  E  E  E  E  E     E  E  E  E  E  E  E  E   
--------------------------|--------------------------|
--------------------------|--------------------------|
--------------------------|--------------------------|
--8--8--8--8--8--8--8--8--|--8--8--8--8--8--8--8--8--|
--8--8--8--8--8--8--8--8--|--9--9--9--9--8--8--8--8--|
--8--8--8--8--8--8--8--8--|--8--8--8--8--8--8--8--8--|


  PM PM PM PM PM PM      PM PM PM    PM PM PM      PM PM PM       
  S  S  E  S  S  E  Q    S  S  E     S  S  E  Q    S  S  E  Q     
----------------------------------|------------------------------|
----------------------------------|------------------------------|
----------------------------------|------------------------------|
--------------------7-------------|-----------7-------------5----|
--------0--------0--8----------0--|--------0--8----------0--7----|
--0--0--0--0--0--0-------0--0--0--|--0--0--0-------0--0--0-------|


  PM PM PM PM PM PM      PM PM PM    PM                     
  S  S  E  S  S  E  Q    S  S  E     Q     Q     Q    Q     
----------------------------------|------------------------|
----------------------------------|------------------------|
----------------------------------|------------------------|
--------------------7-------------|--------8-----8----7----|
--------0--------0--8----------0--|--0----10----10----8----|
--0--0--0--0--0--0-------0--0--0--|--0---------------------|


  S S S S S S S S S S S S S S S S    S S S S S S S S S S S S S S S S  
----------------------------------|----------------------------------|
----------------------------------|----------------------------------|
----------------------------------|----------------------------------|
----------------------------------|----------------------------------|
--8-8-8-8-8-8-8-8-8-8-8-8-8-8-8-8-|--8-8-8-8-8-8-8-8-8-8-8-8-8-8-8-8-|
----------------------------------|----------------------------------|


  S S S S S S S S S S S S S S S S    S S S S S S S S S S S S S S S S  
----------------------------------|----------------------------------|
----------------------------------|----------------------------------|
----------------------------------|----------------------------------|
----------------------------------|----------------------------------|
--7-7-7-7-7-7-7-7-7-7-7-7-7-7-7-7-|--7-7-7-7-7-7-7-7-7-7-7-7-7-7-7-7-|
----------------------------------|----------------------------------|


  S S S S S S S S S S S S S S S S    S S S S S S S S S S S S S S S S  
----------------------------------|----------------------------------|
----------------------------------|----------------------------------|
----------------------------------|----------------------------------|
----------------------------------|----------------------------------|
----------------------------------|----------------------------------|
--5-5-5-5-5-5-5-5-5-5-5-5-5-5-5-5-|--5-5-5-5-5-5-5-5-5-5-5-5-5-5-5-5-|


  ^  v  ^  v  ^  v  ^  v     ^  v  ^  v  ^  v  ^  v   
  E  E  E  E  E  E  E  E     E  E  E  E  E  E  E  E   
--------------------------|--------------------------|
--------------------------|--------------------------|
--------------------------|--------------------------|
--3--3--3--3--3--3--3--3--|--3--3--3--3--3--3--3--3--|
--3--3--3--3--3--3--3--3--|--3--3--3--3--3--3--3--3--|
--3--3--3--3--3--3--3--3--|--3--3--3--3--3--3--3--3--|


  S S S S S S S S S S S S S S S S    S S S S S S S S S S S S S S S S  
----------------------------------|----------------------------------|
----------------------------------|----------------------------------|
----------------------------------|----------------------------------|
----------------------------------|----------------------------------|
--8-8-8-8-8-8-8-8-8-8-8-8-8-8-8-8-|--8-8-8-8-8-8-8-8-8-8-8-8-8-8-8-8-|
----------------------------------|----------------------------------|


  S S S S S S S S S S S S S S S S    S S S S S S S S S S S S S S S S  
----------------------------------|----------------------------------|
----------------------------------|----------------------------------|
----------------------------------|----------------------------------|
----------------------------------|----------------------------------|
--7-7-7-7-5-5-5-5-3-3-3-3-3-3-3-3-|--3-3-3-3-3-3-3-3-3-3-3-3-3-3-3-3-|
----------------------------------|----------------------------------|


  S S S S S S S S S S S S S S S S    S S S S S S S S S S S S S S S S  
----------------------------------|----------------------------------|
----------------------------------|----------------------------------|
----------------------------------|----------------------------------|
----------------------------------|----------------------------------|
----------------------------------|----------------------------------|
--5-5-5-5-5-5-5-5-5-5-5-5-5-5-5-5-|--5-5-5-5-5-5-5-5-5-5-5-5-5-5-5-5-|


  ^  v  ^  v  ^  v  ^  v     ^  v  ^  v  ^  v  ^  v   
  E  E  E  E  E  E  E  E     E  E  E  E  E  E  E  E   
--------------------------|--------------------------|
--------------------------|--------------------------|
--------------------------|--------------------------|
--8--8--8--8--8--8--8--8--|--8--8--8--8--8--8--8--8--|
--8--8--8--8--8--8--8--8--|--8--8--8--8--8--8--8--8--|
--8--8--8--8--8--8--8--8--|--8--8--8--8--8--8--8--8--|


  S S S S S S S S S S S S S S S S    S S S S S S S S S S S S S S S S  
----------------------------------|----------------------------------|
----------------------------------|----------------------------------|
----------------------------------|----------------------------------|
----------------------------------|----------------------------------|
----------8-8-8-8-5-5-5-5---------|--8-8-8-8-7-7-7-7-8-8-8-8-3-3-3-3-|
--0-0-0-0-----------------0-0-0-0-|----------------------------------|


  S S S S S S S S S S S S S S S S    S S S S S S S S S S S S S S S S  
----------------------------------|----------------------------------|
----------------------------------|----------------------------------|
----------------------------------|----------------------------------|
----------------------------------|------------------5-5-5-5---------|
----------8-8-8-8-5-5-5-5---------|--8-8-8-8-7-7-7-7---------8-8-8-8-|
--0-0-0-0-----------------0-0-0-0-|----------------------------------|


  S S S S S S S S S S S S S S S S    S S S S S S S S S S S S S S S S  
----------------------------------|----------------------------------|
----------------------------------|----------------------------------|
----------------------------------|----------------------------------|
----------------------------------|----------------------------------|
----------8-8-8-8-5-5-5-5---------|--8-8-8-8-7-7-7-7-8-8-8-8-3-3-3-3-|
--0-0-0-0-----------------0-0-0-0-|----------------------------------|


                                                     ^  v  ^  v   
  S S S S S S S S S S S S S S S S    S S S S S S S S E  E  E  E   
----------------------------------|------------------------------|
----------------------------------|------------------------------|
----------------------------------|------------------------------|
----------------------------------|------------------8--8--8--8--|
----------8-8-8-8-5-5-5-5---------|--8-8-8-8-7-7-7-7-8--8--8--8--|
--0-0-0-0-----------------0-0-0-0-|------------------8--8--8--8--|


  PM PM PM PM    PM PM PM PM PM       PM PM    PM PM PM PM     
  S  S  E  E  E  S  S  E  E  E     E  E  E  E  S  S  E  E  E   
--------------------------------|-----------------------------|
--------------------------------|-----------------------------|
--------------------------------|-----------------------------|
--------------------------------|-----------------------------|
--------0--0-----------0--0--0--|-----0--0-----------0--0-----|
--0--0--0--0-----0--0--0--0--0--|-----0--0-----0--0--0--0-----|


  PM PM PM PM    PM PM PM PM PM       PM PM    PM PM PM PM     
  S  S  E  E  E  S  S  E  E  E     E  E  E  E  S  S  E  E  E   
--------------------------------|-----------------------------|
--------------------------------|-----------------------------|
--------------------------------|-----------------------------|
--------------------------------|-----------------------------|
--------0--0-----------0--0--0--|-----0--0-----------0--0-----|
--0--0--0--0-----0--0--0--0--0--|-----0--0-----0--0--0--0-----|


  PM PM PM PM    PM PM PM PM PM       PM PM    PM PM PM PM     
  S  S  E  E  E  S  S  E  E  E     E  E  E  E  S  S  E  E  E   
--------------------------------|-----------------------------|
--------------------------------|-----------------------------|
--------------------------------|-----------------------------|
--------------------------------|-----------------------------|
--------0--0-----------0--0--0--|-----0--0-----------0--0-----|
--0--0--0--0-----0--0--0--0--0--|-----0--0-----0--0--0--0-----|


  PM PM PM PM    PM PM PM PM PM       PM PM    PM PM PM PM     
  S  S  E  E  E  S  S  E  E  E     E  E  E  E  S  S  E  E  E   
--------------------------------|-----------------------------|
--------------------------------|-----------------------------|
--------------------------------|-----------------------------|
--------------------------------|-----------------------------|
--------0--0-----------0--0--0--|-----0--0-----------0--0-----|
--0--0--0--0-----0--0--0--0--0--|-----0--0-----0--0--0--0-----|


  ^  v  ^  v  ^  v  ^  v     ^  v  ^  v  ^  v  ^  v   
  E  E  E  E  E  E  E  E     E  E  E  E  E  E  E  E   
--------------------------|--------------------------|
--------------------------|--------------------------|
--------------------------|--------------------------|
--8--8--8--8--8--8--8--8--|--8--8--8--8--8--8--8--8--|
--8--8--8--8--8--8--8--8--|--9--9--9--9--8--8--8--8--|
--8--8--8--8--8--8--8--8--|--8--8--8--8--8--8--8--8--|


  PM PM PM PM PM PM      PM PM PM    PM PM PM      PM PM PM       
  S  S  E  S  S  E  Q    S  S  E     S  S  E  Q    S  S  E  Q     
----------------------------------|------------------------------|
----------------------------------|------------------------------|
----------------------------------|------------------------------|
--------------------7-------------|-----------7-------------5----|
--------0--------0--8----------0--|--------0--8----------0--7----|
--0--0--0--0--0--0-------0--0--0--|--0--0--0-------0--0--0-------|


  PM PM PM PM PM PM      PM PM PM    PM PM PM                   
  S  S  E  S  S  E  Q    S  S  E     S  S  E   Q     Q    Q     
----------------------------------|----------------------------|
----------------------------------|----------------------------|
----------------------------------|----------------------------|
--------------------7-------------|------------8-----8----7----|
--------0--------0--8----------0--|--------0--10----10----8----|
--0--0--0--0--0--0-------0--0--0--|--0--0--0-------------------|


  ^  v  ^  v  ^  v  ^  v     ^  v  ^  v  ^  v  ^  v   
  E  E  E  E  E  E  E  E     E  E  E  E  E  E  E  E   
--------------------------|--------------------------|
--------------------------|--------------------------|
--------------------------|--------------------------|
--8--8--8--8--8--8--8--8--|--8--8--8--8--8--8--8--8--|
--8--8--8--8--8--8--8--8--|--9--9--9--9--8--8--8--8--|
--8--8--8--8--8--8--8--8--|--8--8--8--8--8--8--8--8--|


  PM PM PM PM PM PM      PM PM PM    PM PM PM      PM PM PM       
  S  S  E  S  S  E  Q    S  S  E     S  S  E  Q    S  S  E  Q     
----------------------------------|------------------------------|
----------------------------------|------------------------------|
----------------------------------|------------------------------|
--------------------7-------------|-----------7-------------5----|
--------0--------0--8----------0--|--------0--8----------0--7----|
--0--0--0--0--0--0-------0--0--0--|--0--0--0-------0--0--0-------|


  PM PM PM PM PM PM      PM PM PM    PM PM PM                   
  S  S  E  S  S  E  Q    S  S  E     S  S  E   Q     Q    Q     
----------------------------------|----------------------------|
----------------------------------|----------------------------|
----------------------------------|----------------------------|
--------------------7-------------|------------8-----8----7----|
--------0--------0--8----------0--|--------0--10----10----8----|
--0--0--0--0--0--0-------0--0--0--|--0--0--0-------------------|


  ^  v  ^  v  ^  v  ^  v     ^  v  ^  v  ^  v  ^  v   
  E  E  E  E  E  E  E  E     E  E  E  E  E  E  E  E   
--------------------------|--------------------------|
--------------------------|--------------------------|
--------------------------|--------------------------|
--8--8--8--8--8--8--8--8--|--8--8--8--8--8--8--8--8--|
--8--8--8--8--8--8--8--8--|--9--9--9--9--8--8--8--8--|
--8--8--8--8--8--8--8--8--|--8--8--8--8--8--8--8--8--|


  PM PM PM PM PM PM      PM PM PM    PM PM PM      PM PM PM       
  S  S  E  S  S  E  Q    S  S  E     S  S  E  Q    S  S  E  Q     
----------------------------------|------------------------------|
----------------------------------|------------------------------|
----------------------------------|------------------------------|
--------------------7-------------|-----------7-------------5----|
--------0--------0--8----------0--|--------0--8----------0--7----|
--0--0--0--0--0--0-------0--0--0--|--0--0--0-------0--0--0-------|


  PM PM PM PM PM PM      PM PM PM    PM                     
  S  S  E  S  S  E  Q    S  S  E     Q     Q     Q    Q     
----------------------------------|------------------------|
----------------------------------|------------------------|
----------------------------------|------------------------|
--------------------7-------------|--------8-----8----7----|
--------0--------0--8----------0--|--0----10----10----8----|
--0--0--0--0--0--0-------0--0--0--|--0---------------------|


  S S S S S S S S S S S S S S S S    S S S S S S S S S S S S S S S S  
----------------------------------|----------------------------------|
----------------------------------|----------------------------------|
----------------------------------|----------------------------------|
----------------------------------|----------------------------------|
--8-8-8-8-8-8-8-8-8-8-8-8-8-8-8-8-|--8-8-8-8-8-8-8-8-8-8-8-8-8-8-8-8-|
----------------------------------|----------------------------------|


  S S S S S S S S S S S S S S S S    S S S S S S S S S S S S S S S S  
----------------------------------|----------------------------------|
----------------------------------|----------------------------------|
----------------------------------|----------------------------------|
----------------------------------|----------------------------------|
--7-7-7-7-7-7-7-7-7-7-7-7-7-7-7-7-|--7-7-7-7-7-7-7-7-7-7-7-7-7-7-7-7-|
----------------------------------|----------------------------------|


  S S S S S S S S S S S S S S S S    S S S S S S S S S S S S S S S S  
----------------------------------|----------------------------------|
----------------------------------|----------------------------------|
----------------------------------|----------------------------------|
----------------------------------|----------------------------------|
----------------------------------|----------------------------------|
--5-5-5-5-5-5-5-5-5-5-5-5-5-5-5-5-|--5-5-5-5-5-5-5-5-5-5-5-5-5-5-5-5-|


  ^  v  ^  v  ^  v  ^  v     ^  v  ^  v  ^  v  ^  v   
  E  E  E  E  E  E  E  E     E  E  E  E  E  E  E  E   
--------------------------|--------------------------|
--------------------------|--------------------------|
--------------------------|--------------------------|
--3--3--3--3--3--3--3--3--|--3--3--3--3--3--3--3--3--|
--3--3--3--3--3--3--3--3--|--3--3--3--3--3--3--3--3--|
--3--3--3--3--3--3--3--3--|--3--3--3--3--3--3--3--3--|


  S S S S S S S S S S S S S S S S    S S S S S S S S S S S S S S S S  
----------------------------------|----------------------------------|
----------------------------------|----------------------------------|
----------------------------------|----------------------------------|
----------------------------------|----------------------------------|
--8-8-8-8-8-8-8-8-8-8-8-8-8-8-8-8-|--8-8-8-8-8-8-8-8-8-8-8-8-8-8-8-8-|
----------------------------------|----------------------------------|


  S S S S S S S S S S S S S S S S    S S S S S S S S S S S S S S S S  
----------------------------------|----------------------------------|
----------------------------------|----------------------------------|
----------------------------------|----------------------------------|
----------------------------------|----------------------------------|
--7-7-7-7-5-5-5-5-3-3-3-3-3-3-3-3-|--3-3-3-3-3-3-3-3-3-3-3-3-3-3-3-3-|
----------------------------------|----------------------------------|


  S S S S S S S S S S S S S S S S    S S S S S S S S S S S S S S S S  
----------------------------------|----------------------------------|
----------------------------------|----------------------------------|
----------------------------------|----------------------------------|
----------------------------------|----------------------------------|
----------------------------------|----------------------------------|
--5-5-5-5-5-5-5-5-5-5-5-5-5-5-5-5-|--5-5-5-5-5-5-5-5-5-5-5-5-5-5-5-5-|


  ^  v  ^  v  ^  v  ^  v     ^  v  ^  v  ^  v  ^  v   
  E  E  E  E  E  E  E  E     E  E  E  E  E  E  E  E   
--------------------------|--------------------------|
--------------------------|--------------------------|
--------------------------|--------------------------|
--8--8--8--8--8--8--8--8--|--8--8--8--8--8--8--8--8--|
--8--8--8--8--8--8--8--8--|--8--8--8--8--8--8--8--8--|
--8--8--8--8--8--8--8--8--|--8--8--8--8--8--8--8--8--|


  PM PM PM PM    PM PM PM PM PM       PM PM    PM PM PM PM     
  S  S  E  E  E  S  S  E  E  E     E  E  E  E  S  S  E  E  E   
--------------------------------|-----------------------------|
--------------------------------|-----------------------------|
--------------------------------|-----------------------------|
--------------------------------|-----------------------------|
--------0--0-----------0--0--0--|-----0--0-----------0--0-----|
--0--0--0--0-----0--0--0--0--0--|-----0--0-----0--0--0--0-----|


  PM PM PM PM    PM PM PM PM PM       PM PM    PM PM PM PM     
  S  S  E  E  E  S  S  E  E  E     E  E  E  E  S  S  E  E  E   
--------------------------------|-----------------------------|
--------------------------------|-----------------------------|
--------------------------------|-----------------------------|
--------------------------------|-----------------------------|
--------0--0-----------0--0--0--|-----0--0-----------0--0-----|
--0--0--0--0-----0--0--0--0--0--|-----0--0-----0--0--0--0-----|


  PM PM PM PM    PM PM PM PM PM       PM PM    PM PM PM PM     
  S  S  E  E  E  S  S  E  E  E     E  E  E  E  S  S  E  E  E   
--------------------------------|-----------------------------|
--------------------------------|-----------------------------|
--------------------------------|-----------------------------|
--------------------------------|-----------------------------|
--------0--0-----------0--0--0--|-----0--0-----------0--0-----|
--0--0--0--0-----0--0--0--0--0--|-----0--0-----0--0--0--0-----|


  PM PM PM PM    PM PM PM PM PM       PM PM    PM PM PM PM     
  S  S  E  E  E  S  S  E  E  E     E  E  E  E  S  S  E  E  E   
--------------------------------|-----------------------------|
--------------------------------|-----------------------------|
--------------------------------|-----------------------------|
--------------------------------|-----------------------------|
--------0--0-----------0--0--0--|-----0--0-----------0--0-----|
--0--0--0--0-----0--0--0--0--0--|-----0--0-----0--0--0--0-----|


  S S S S S S S S S S S S S S S S    S S S S S S S S S S S S S S S S  
----------------------------------|----------------------------------|
----------------------------------|----------------------------------|
----------------------------------|----------------------------------|
----------------------------------|----------------------------------|
----------8-8-8-8-5-5-5-5---------|--8-8-8-8-7-7-7-7-8-8-8-8-3-3-3-3-|
--0-0-0-0-----------------0-0-0-0-|----------------------------------|


  S S S S S S S S S S S S S S S S    S S S S S S S S S S S S S S S S  
----------------------------------|----------------------------------|
----------------------------------|----------------------------------|
----------------------------------|----------------------------------|
----------------------------------|------------------5-5-5-5---------|
----------8-8-8-8-5-5-5-5---------|--8-8-8-8-7-7-7-7---------8-8-8-8-|
--0-0-0-0-----------------0-0-0-0-|----------------------------------|


  S S S S S S S S S S S S S S S S    S S S S S S S S S S S S S S S S  
----------------------------------|----------------------------------|
----------------------------------|----------------------------------|
----------------------------------|----------------------------------|
----------------------------------|----------------------------------|
----------8-8-8-8-5-5-5-5---------|--8-8-8-8-7-7-7-7-8-8-8-8-3-3-3-3-|
--0-0-0-0-----------------0-0-0-0-|----------------------------------|


  S S S S S S S S S S S S S S S S    S S S S S S S S E  E  E  E   
----------------------------------|------------------------------|
----------------------------------|------------------------------|
----------------------------------|------------------------------|
----------------------------------|------------------5-----------|
----------8-8-8-8-5-5-5-5---------|--8-8-8-8-7-7-7-7----8--7--8--|
--0-0-0-0-----------------0-0-0-0-|------------------------------|


  PM PM PM PM      PM PM    PM PM      PM PM         PM PM PM PM      PM PM  
  E  E  E  E  Q    E  E     E  E  Q    E  E  Q       E  E  E  E  Q    E  E   
-------------------------|------------------------|-------------------------|
-------------------------|------------------------|-------------------------|
-------------------------|------------------------|-------------------------|
--------------7----------|--------7----------5----|--------------7----------|
--------------8----------|--------8----------7----|--------------8----------|
--0--0--0--0-------0--0--|--0--0-------0--0-------|--0--0--0--0-------0--0--|


  PM PM                     PM PM PM PM      PM PM    PM PM      PM PM       
  E  E   Q     Q    Q       E  E  E  E  Q    E  E     E  E  Q    E  E  Q     
-------------------------|-------------------------|------------------------|
-------------------------|-------------------------|------------------------|
-------------------------|-------------------------|------------------------|
---------8-----8----7----|--------------7----------|--------7----------5----|
--------10----10----8----|--------------8----------|--------8----------7----|
--0--0-------------------|--0--0--0--0-------0--0--|--0--0-------0--0-------|


  PM PM PM PM      PM PM    PM PM                     PM PM PM PM      PM PM  
  E  E  E  E  Q    E  E     E  E   Q     Q    Q       E  E  E  E  Q    E  E   
-------------------------|-------------------------|-------------------------|
-------------------------|-------------------------|-------------------------|
-------------------------|-------------------------|-------------------------|
--------------7----------|---------8-----8----7----|--------------7----------|
--------------8----------|--------10----10----8----|--------------8----------|
--0--0--0--0-------0--0--|--0--0-------------------|--0--0--0--0-------0--0--|


  PM PM      PM PM         PM PM PM PM      PM PM    PM PM                   
  E  E  Q    E  E  Q       E  E  E  E  Q    E  E     E  E   Q     Q    Q     
------------------------|-------------------------|-------------------------|
------------------------|-------------------------|-------------------------|
------------------------|-------------------------|-------------------------|
--------7----------5----|--------------7----------|---------8-----8----7----|
--------8----------7----|--------------8----------|--------10----10----8----|
--0--0-------0--0-------|--0--0--0--0-------0--0--|--0--0-------------------|


  PM PM PM PM      PM PM    PM PM      PM PM         PM PM PM PM      PM PM  
  E  E  E  E  Q    E  E     E  E  Q    E  E  Q       E  E  E  E  Q    E  E   
-------------------------|------------------------|-------------------------|
-------------------------|------------------------|-------------------------|
-------------------------|------------------------|-------------------------|
--------------7----------|--------7----------5----|--------------7----------|
--------------8----------|--------8----------7----|--------------8----------|
--0--0--0--0-------0--0--|--0--0-------0--0-------|--0--0--0--0-------0--0--|


  PM PM                                                      
  E  E   Q     Q    Q       S S S S S S S S S S S S S S S S  
-------------------------|----------------------------------|
-------------------------|----------------------------------|
-------------------------|----------------------------------|
---------8-----8----7----|----------------------------------|
--------10----10----8----|----------8-8-8-8-5-5-5-5---------|
--0--0-------------------|--0-0-0-0-----------------0-0-0-0-|


  S S S S S S S S S S S S S S S S    S S S S S S S S S S S S S S S S  
----------------------------------|----------------------------------|
----------------------------------|----------------------------------|
----------------------------------|----------------------------------|
----------------------------------|----------------------------------|
--8-8-8-8-7-7-7-7-8-8-8-8-3-3-3-3-|----------8-8-8-8-5-5-5-5---------|
----------------------------------|--0-0-0-0-----------------0-0-0-0-|


  S S S S S S S S S S S S S S S S    S S S S S S S S S S S S S S S S  
----------------------------------|----------------------------------|
----------------------------------|----------------------------------|
----------------------------------|----------------------------------|
------------------5-5-5-5---------|----------------------------------|
--8-8-8-8-7-7-7-7---------8-8-8-8-|----------8-8-8-8-5-5-5-5---------|
----------------------------------|--0-0-0-0-----------------0-0-0-0-|


  S S S S S S S S S S S S S S S S    S S S S S S S S S S S S S S S S  
----------------------------------|----------------------------------|
----------------------------------|----------------------------------|
----------------------------------|----------------------------------|
----------------------------------|----------------------------------|
--8-8-8-8-7-7-7-7-8-8-8-8-3-3-3-3-|----------8-8-8-8-5-5-5-5---------|
----------------------------------|--0-0-0-0-----------------0-0-0-0-|


  S S S S S S S S E  E  E  E     S S S S S S S S S S S S S S S S  
------------------------------|----------------------------------|
------------------------------|----------------------------------|
------------------------------|----------------------------------|
------------------5-----------|----------------------------------|
--8-8-8-8-7-7-7-7-------------|----------8-8-8-8-5-5-5-5---------|
------------------------------|--0-0-0-0-----------------0-0-0-0-|


  S S S S S S S S S S S S S S S S    S S S S S S S S S S S S S S S S  
----------------------------------|----------------------------------|
----------------------------------|----------------------------------|
----------------------------------|----------------------------------|
----------------------------------|----------------------------------|
--8-8-8-8-7-7-7-7-8-8-8-8-3-3-3-3-|----------8-8-8-8-5-5-5-5---------|
----------------------------------|--0-0-0-0-----------------0-0-0-0-|


  S S S S S S S S S S S S S S S S    S S S S S S S S S S S S S S S S  
----------------------------------|----------------------------------|
----------------------------------|----------------------------------|
----------------------------------|----------------------------------|
------------------5-5-5-5---------|----------------------------------|
--8-8-8-8-7-7-7-7---------8-8-8-8-|----------8-8-8-8-5-5-5-5---------|
----------------------------------|--0-0-0-0-----------------0-0-0-0-|


  S S S S S S S S S S S S S S S S    S S S S S S S S S S S S S S S S  
----------------------------------|----------------------------------|
----------------------------------|----------------------------------|
----------------------------------|----------------------------------|
----------------------------------|----------------------------------|
--8-8-8-8-7-7-7-7-8-8-8-8-3-3-3-3-|----------8-8-8-8-5-5-5-5---------|
----------------------------------|--0-0-0-0-----------------0-0-0-0-|


                  ^  v  ^  v     PM PM PM PM    PM PM PM PM PM  
  S S S S S S S S E  E  E  E     S  S  E  E  E  S  S  E  E  E   
------------------------------|--------------------------------|
------------------------------|--------------------------------|
------------------------------|--------------------------------|
------------------8--8--8--8--|--------------------------------|
--8-8-8-8-7-7-7-7-8--8--8--8--|--------0--0-----------0--0--0--|
------------------8--8--8--8--|--0--0--0--0-----0--0--0--0--0--|


     PM PM    PM PM PM PM       PM PM PM PM    PM PM PM PM PM  
  E  E  E  E  S  S  E  E  E     S  S  E  E  E  S  S  E  E  E   
-----------------------------|--------------------------------|
-----------------------------|--------------------------------|
-----------------------------|--------------------------------|
-----------------------------|--------------------------------|
-----0--0-----------0--0-----|--------0--0-----------0--0--0--|
-----0--0-----0--0--0--0-----|--0--0--0--0-----0--0--0--0--0--|


     PM PM    PM PM PM PM       PM PM PM PM    PM PM PM PM PM  
  E  E  E  E  S  S  E  E  E     S  S  E  E  E  S  S  E  E  E   
-----------------------------|--------------------------------|
-----------------------------|--------------------------------|
-----------------------------|--------------------------------|
-----------------------------|--------------------------------|
-----0--0-----------0--0-----|--------0--0-----------0--0--0--|
-----0--0-----0--0--0--0-----|--0--0--0--0-----0--0--0--0--0--|


     PM PM    PM PM PM PM       PM PM PM PM    PM PM PM PM PM  
  E  E  E  E  S  S  E  E  E     S  S  E  E  E  S  S  E  E  E   
-----------------------------|--------------------------------|
-----------------------------|--------------------------------|
-----------------------------|--------------------------------|
-----------------------------|--------------------------------|
-----0--0-----------0--0-----|--------0--0-----------0--0--0--|
-----0--0-----0--0--0--0-----|--0--0--0--0-----0--0--0--0--0--|


     PM PM    PM PM PM PM       PM                   
  E  E  E  E  S  S  E  E  E     Q    Q    H          
-----------------------------|---------------------||
-----------------------------|---------------------||
-----------------------------|---------------------||
-----------------------------|---------------------||
-----0--0-----------0--0-----|--0------------------||
-----0--0-----0--0--0--0-----|--0------------------||




Duration Legend
---------------
W - whole
H - half
Q - quarter
E - 8th
S - 16th
T - 32nd
X - 64th
. - note dotted
|-n-|  - n-tuplets


Tablature Legend
----------------
L - tied note
x - dead note
g - grace note
(n) - ghost note
> - accentuded note
NH - natural harmonic
AH - artificial harmonic
TH - tapped harmonic
SH - semi harmonic
PH - pitch harmonic
h - hammer on
p - pull off
b - bend
br - bendRelease
pb - preBend
pbr - preBendRelease
brb - bendReleaseBend
\n/ - tremolo bar dip
\n - tremolo bar dive
-/n - tremolo bar Release up
/n\ - tremolo bar inverted dip
/n - tremolo bar return
-\n - tremolo bar Release down
S - shift slide
s - legato slide
/ -  slide into from below or out of upwards
\ -  slide into from above or out of downwards
~ - vibrato
W - wide vibrato
tr - trill
TP - tremolo picking
T - tapping
S - slap
P - pop
< - fade in
^ - brush up
v - brush down





Comments


Popular Heaven Shall Burn tabs & chords
Counterweight Bass Tabs
Only Truth Bass Tabs
Profane Believers Bass Tabs
Stay The Course 2 Bass Tabs
Behind A Wall Of Silence Tabs
Dying In Silence Tabs
Endzeit Tabs
Murderers Of The Murderers Tabs
Stay The Course Tabs
Weapon They Fear Tabs


Song lyrics



↑ Back to top | Tablatures and chords are parodies/interpretations of the original songs. You may use it for private study, scholarship, research or language learning purposes only
© 2014 AZChords.com Contact us | Privacy policy | DMCA | Add/correct tabs | Request tabs | Top 50 tabs