» » »

Black Tears Tabs (ver.2)

Artists:  A B C D E F G H I J K L M N O P Q R S T U V W X Y Z # 

Black Tears Tabs (ver.2)

Heaven Shall Burn
Rating:
5/5 (5 votes)

Hard to play? Try these video lessons and learn fast.
                Heaven Shall Burn - Black Tears
Original song by: Edge of Sanity
Tuning: CGCFAD;


Intro/Chorus:
D-|---------------------------------------------------------------|
A-|---------------------------------------------------------------|
F-|--10--9--7------7~--7--------------------------------9--7------|
C-|------------10-------------------7------------7--10------------| x3
G-|---------------------------10---------10-----------------------|
C-|---------------------------------------------------------------|


D-|------------------------------------|
A-|------------------------------------|
F-|------------------------------------|
C-|------------------------------------|
G-|--10----8---7--5----10----8---7--5--|
C-|------------------------------------|

Verse I:
D-|------------------------------------|
A-|------------------------------------|
F-|------------------------------------|
C-|--0-0-0-0-0-0-0-0-7-7-7-7-7-7-7-7---| x3
G-|--0-0-0-0-0-0-0-0-7-7-7-7-7-7-7-7---|
C-|--0-0-0-0-0-0-0-0-7-7-7-7-7-7-7-7---|
       _ _   _ _       _ _   _ _     PM

D-|------------------------------------|
A-|------------------------------------|
F-|------------------------------------|
C-|--5-----7------5/7---7------7-------|
G-|--5------------5/7----------7-------|
C-|--5------------5/7----------7-------|


Pre-Chorus:
D-|-------------------------------------------|
A-|-------------------------------------------|
F-|-7---7---9-9-x--10----10-10-10-10-10-10-10-|
C-|-------------------------------------------| x3
G-|-5---5---7-7-x--8-----8--8--8--8--8--8--8--|
C-|-------------------------------------------|

D-|------------------------------------|
A-|------------------------------------|
F-|------------------------------------|
C-|-5-5-5-5-5-5-5-5-7------------------|
G-|-5-5-5-5-5-5-5-5-7------------------|
C-|-5-5-5-5-5-5-5-5-7------------------|
    _ _ _ _ _ _ _ _                  PM
    Increase attack here

Verse II:
D-|--------------------------------------|
A-|--------------------------------------|
F-|----------------------------7---7\3---|
C-|--0-0-0-0-0-0-0-0-7-7-7-7-7-7---7\3---| x3
G-|--0-0-0-0-0-0-0-0-7-7-7-7-7-5-0-5\1---|
C-|--0-0-0-0-0-0-0-0-7-7-7-7-7---0-------|
     _ _ _ _ _ _ _ _ _ _ _ _ _   _       PM

D-|------------------------------------|
A-|------------------------------------|
F-|------------------------------------|
C-|--5-----7------5/7---7------7-------|
G-|--5------------5/7----------7-------|
C-|--5------------5/7----------7-------|


Ending:
D-|------|
A-|------|
F-|------|
C-|--0---|  This is the hardest part, right here! Took me hours of practice.
G-|--0---|
C-|--0---|

Order:
Intro     x2
Verse I   x2
Chorus
Verse I   x2
Pre-Chorus
Chorus
Verse II  x2
Pre-Chorus
Chorus    x5
Ending
            
Hard to play? Try these video lessons and learn fast. | Correct




comments powered by Disqus
↑ Back to top | Tablatures and chords are parodies/interpretations of the original songs. You may use it for private study, scholarship, research or language learning purposes only