>
 >
Behind A Wall Of Silence

Behind A Wall Of Silence Guitar Tabs

Heaven Shall Burn - Behind A Wall Of Silence chords, tabs, tablatures, lyrics

Guitar lessons | Add/correct | Request | Top 50 tabs Artists:  A B C D E F G H I J K L M N O P Q R S T U V W X Y Z 0-9

Behind A Wall Of Silence Guitar Tabs – Heaven Shall Burn

CD, Sheet music, Poster

Do you like Behind A Wall Of Silence? Share with your friends now
Tabs
Raita 1
      S S S S S S S S S S S S S S S S    S S S S S S S S S S S S S S S S  
C#||----------------------------------|----------------------------------|
G#||----------------------------------|----------------------------------|
E ||----------------------------------|----------------------------------|
B ||----------------------------------|----------------------------------|
F#||----------5-5-5-5---------6-6-6-6-|----------5-5-6-6---------6-6-8-8-|
B ||--0-0-0-0---------0-0-0-0---------|--0-0-0-0---------0-0-0-0---------|


  S S S S S S S S S S S S S S S S    S S S S S S S S S S S S S S S S  
----------------------------------|----------------------------------|
----------------------------------|----------------------------------|
----------------------------------|----------------------------------|
----------------------------------|----------------------------------|
----------5-5-5-5---------6-6-6-6-|----------5-5-6-6-5-5-5-5-3-3-3-3-|
--0-0-0-0---------0-0-0-0---------|--0-0-0-0-------------------------|


  S S S S S S S S S S S S S S S S    S S S S S S S S S S S S S S S S  
----------------------------------|----------------------------------|
----------------------------------|----------------------------------|
----------------------------------|----------------------------------|
----------------------------------|----------------------------------|
----------5-5-5-5---------6-6-6-6-|----------5-5-6-6---------6-6-8-8-|
--0-0-0-0---------0-0-0-0---------|--0-0-0-0---------0-0-0-0---------|


  S S S S S S S S S S S S S S S S    S S S S S S S S S S S S S S S S  
----------------------------------|----------------------------------|
----------------------------------|----------------------------------|
----------------------------------|----------------------------------|
----------------------------------|----------------------------------|
----------5-5-5-5---------6-6-6-6-|----------5-5-6-6-5-5-5-5-3-3-3-3-|
--0-0-0-0---------0-0-0-0---------|--0-0-0-0-------------------------|


    S S S S S S S S S S S S S S S S    S S S S S S S S S S S S S S S S  
|-----------------------------------|----------------------------------|
|-----------------------------------|----------------------------------|
|*----------------------------------|----------------------------------|
|*----------------------------------|----------------------------------|
|-----------6-6-6-6---------5-5-5-5-|----------6-6-5-5-3-3-3-3-5-5-5-5-|
|---0-0-0-0---------0-0-0-0---------|--0-0-0-0-------------------------|


  S S S S S S S S S S S S S S S S    S S S S S S S S S S S S S S S S    
----------------------------------|-----------------------------------||
----------------------------------|-----------------------------------||
----------------------------------|----------------------------------*||
----------------------------------|----------------------------------*||
----------6-6-6-6---------5-5-5-5-|----------6-6-5-5-8-8-8-8-6-6-6-6--||
--0-0-0-0---------0-0-0-0---------|--0-0-0-0--------------------------||


  S S S S S S S S S S S S S S S S    S S S S S S S S S S S S S S S S  
----------------------------------|----------------------------------|
----------------------------------|----------------------------------|
----------------------------------|----------------------------------|
----------------------------------|----------------------------------|
----------6-6-5-5-8-8-8-8-6-6-6-6-|----------5-5-5-5---------6-6-6-6-|
--0-0-0-0-------------------------|--0-0-0-0---------0-0-0-0---------|


  S S S S S S S S S S S S S S S S    S S S S S S S S S S S S S S S S  
----------------------------------|----------------------------------|
----------------------------------|----------------------------------|
----------------------------------|----------------------------------|
----------------------------------|----------------------------------|
----------5-5-6-6---------6-6-8-8-|----------5-5-5-5---------6-6-6-6-|
--0-0-0-0---------0-0-0-0---------|--0-0-0-0---------0-0-0-0---------|


  S S S S S S S S S S S S S S S S    S S S S S S S S S S S S S S S S  
----------------------------------|----------------------------------|
----------------------------------|----------------------------------|
----------------------------------|----------------------------------|
----------------------------------|----------------------------------|
----------5-5-6-6-5-5-5-5-3-3-3-3-|----------5-5-5-5---------6-6-6-6-|
--0-0-0-0-------------------------|--0-0-0-0---------0-0-0-0---------|


  S S S S S S S S S S S S S S S S    S S S S S S S S S S S S S S S S  
----------------------------------|----------------------------------|
----------------------------------|----------------------------------|
----------------------------------|----------------------------------|
----------------------------------|----------------------------------|
----------5-5-6-6---------6-6-8-8-|----------5-5-5-5---------6-6-6-6-|
--0-0-0-0---------0-0-0-0---------|--0-0-0-0---------0-0-0-0---------|


  S S S S S S S S S S S S S S S S      W                 
----------------------------------||--------------------|
----------------------------------||--------------------|
----------------------------------||*-------------------|
----------------------------------||*-------------------|
----------5-5-6-6-5-5-5-5-3-3-3-3-||---0----------------|
--0-0-0-0-------------------------||---0----------------|


  H        E  E  E  E     W                 
-----------------------|-------------------|
-----------------------|-------------------|
-----------------------|-------------------|
-----------------------|-------------------|
--L--------0--0--0--0--|--0----------------|
--L--------0--0--0--0--|--0----------------|


  S S S S S S S S S S S S S S S S       E  E  E  E  E  E  E  E   
-----------------------------------||---------------------------|
-----------------------------------||---------------------------|
----------------------------------*||*--------------------------|
----------------------------------*||*--------------------------|
-----------------------------------||---------------3--2--------|
--3-3-3---3-3-3---1-1-1---1-1-1----||---0--0--0--0--3--2--0--0--|


  E  E  E  E  E  E  E  E     E  E  E  E  E  E  E  E   
--------------------------|--------------------------|
--------------------------|--------------------------|
--------------------------|--------------------------|
--------------------------|--------------------------|
--------1--0--------4--3--|--------------3--2--------|
--0--0--1--0--0--0--4--3--|--0--0--0--0--3--2--0--0--|


  E  E  E  E  E  E  E  E       E  E  E  E  E  E  E  E   
---------------------------||--------------------------|
---------------------------||--------------------------|
--------------------------*||--------------------------|
--------------------------*||--------------------------|
--4--3-----3--2-----1--0---||--4--3-----3--2-----1--0--|
--4--3--0--3--2--0--1--0---||--4--3--0--3--2--0--1--0--|


  S S S S S S S S S S S S S S S S    S S S S S S S S S S S S S S S S  
----------------------------------|----------------------------------|
----------------------------------|----------------------------------|
----------------------------------|----------------------------------|
----------------------------------|----------------------------------|
--5-5-5-5-5-5-5-5-5-5-5-5-5-5-5-5-|--5-5-5-5-5-5-5-5-7-7-7-7-7-7-7-7-|
----------------------------------|----------------------------------|


  S S S S S S S S S S S S S S S S    S S S S S S S S  S  S  S  S  S  S  S  S  
----------------------------------|------------------------------------------|
----------------------------------|------------------------------------------|
----------------------------------|------------------------------------------|
----------------------------------|------------------------------------------|
--8-8-8-8-8-8-8-8-8-8-8-8-8-8-8-8-|--8-8-8-8-8-8-8-8-10-10-10-10-10-10-10-10-|
----------------------------------|------------------------------------------|


  S S S S S S S S S S S S S S S S    S S S S S S S S S S S S S S S S  
----------------------------------|----------------------------------|
----------------------------------|----------------------------------|
----------------------------------|----------------------------------|
----------------------------------|----------------------------------|
--7-7-7-7-7-7-7-7-7-7-7-7-7-7-7-7-|--7-7-7-7-7-7-7-7-8-8-8-8-8-8-8-8-|
----------------------------------|----------------------------------|


   S  S  S  S  S  S  S  S  S  S  S  S  S  S  S  S        
--------------------------------------------------|-----|
--------------------------------------------------|-----|
--------------------------------------------------|-----|
--------------------------------------------------|-----|
--10-10-10-10-10-10-10-10-10-10-10-10-10-10-10-10-|-----|
--------------------------------------------------|-----|


    S S S S S S S S S S S S S S S S    S S S S S S S S S S S S  S  S  S  S  
|-----------------------------------|--------------------------------------|
|-----------------------------------|--------------------------------------|
|*----------------------------------|--------------------------------------|
|*----------------------------------|--------------------------------------|
|-----------8-8-7-7-8-8---------8-8-|--8-8-7-7-8-8-----8-8-8-8-10-10-10-10-|
|---0-0-0-0-------------0-0-0-0-----|--------------0-0---------------------|


  S S S S S S S S S S S S S S S S    S S S S S S S S S S S S S S S S    
----------------------------------|-----------------------------------||
----------------------------------|-----------------------------------||
----------------------------------|----------------------------------*||
----------------------------------|----------------------------------*||
----------8-8-7-7-8-8---------8-8-|--8-8-7-7-8-8-----8-8-8-8-7-7-7-7--||
--0-0-0-0-------------0-0-0-0-----|--------------0-0------------------||


  S S S S S S S S S S S S S S S S    S S S S S S S S S S S S S S S S  
----------------------------------|----------------------------------|
----------------------------------|----------------------------------|
----------------------------------|----------------------------------|
----------------------------------|----------------------------------|
----------8-8-7-7-8-8---------8-8-|--8-8-7-7-8-8-----8-8-8-8-7-7-7-7-|
--0-0-0-0-------------0-0-0-0-----|--------------0-0-----------------|


    E  E  E  E  E  E  E  E     E  E  E  E   E   E   E   E   
|---------------------------|------------------------------|
|---------------------------|------------------------------|
|*--------------------------|------------------------------|
|*--------------------------|------------------------------|
|---------8--7--8--------8--|--L--7--8-----10--10--10--10--|
|---0--0-----------0--0-----|-----------0------------------|


  E  E  E  E  E  E  E  E     E  E  E  E  E  E  E  E     
--------------------------|---------------------------||
--------------------------|---------------------------||
--------------------------|--------------------------*||
--------------------------|--------------------------*||
--------8--7--8--------8--|--L--7--8-----7--7--7--7---||
--0--0-----------0--0-----|-----------0---------------||


  E  E  E  E  E  E  E  E       S S S S S S S S S S S S S S S S  
--------------------------||-----------------------------------|
--------------------------||-----------------------------------|
--------------------------||*----------------------------------|
--------------------------||*----------------------------------|
-----7--8-----7--7--7--7--||-----------8-8-7-7-8-8---------8-8-|
-----------0--------------||---0-0-0-0-------------0-0-0-0-----|


  S S S S S S S S S S S S  S  S  S  S    S S S S S S S S S S S S S S S S  
--------------------------------------|----------------------------------|
--------------------------------------|----------------------------------|
--------------------------------------|----------------------------------|
--------------------------------------|----------------------------------|
--8-8-7-7-8-8-----8-8-8-8-10-10-10-10-|----------8-8-7-7-8-8---------8-8-|
--------------0-0---------------------|--0-0-0-0-------------0-0-0-0-----|


  S S S S S S S S S S S S S S S S      S S S S S S S S S S S S S S S S  
-----------------------------------||----------------------------------|
-----------------------------------||----------------------------------|
----------------------------------*||----------------------------------|
----------------------------------*||----------------------------------|
--8-8-7-7-8-8-----8-8-8-8-7-7-7-7--||--8-8-7-7-8-8-----8-8-8-8-7-7-7-7-|
--------------0-0------------------||--------------0-0-----------------|


  S S S S S S S S S S S S S S S S    S S S S S S S S S S S S S S S S  
----------------------------------|----------------------------------|
----------------------------------|----------------------------------|
----------------------------------|----------------------------------|
----------------------------------|----------------------------------|
----------6-6-6-6---------5-5-5-5-|----------6-6-5-5-3-3-3-3-5-5-5-5-|
--0-0-0-0---------0-0-0-0---------|--0-0-0-0-------------------------|


  S S S S S S S S S S S S S S S S    S S S S S S S S S S S S S S S S  
----------------------------------|----------------------------------|
----------------------------------|----------------------------------|
----------------------------------|----------------------------------|
----------------------------------|----------------------------------|
----------6-6-6-6---------5-5-5-5-|----------6-6-5-5-8-8-8-8-6-6-6-6-|
--0-0-0-0---------0-0-0-0---------|--0-0-0-0-------------------------|


  S S S S S S S S S S S S S S S S    S S S S S S S S S S S S S S S S  
----------------------------------|----------------------------------|
----------------------------------|----------------------------------|
----------------------------------|----------------------------------|
----------------------------------|----------------------------------|
----------6-6-6-6---------5-5-5-5-|----------6-6-5-5-3-3-3-3-5-5-5-5-|
--0-0-0-0---------0-0-0-0---------|--0-0-0-0-------------------------|


  S S S S S S S S S S S S S S S S    S S S S S S S S S S S S S S S S  
----------------------------------|----------------------------------|
----------------------------------|----------------------------------|
----------------------------------|----------------------------------|
----------------------------------|----------------------------------|
----------6-6-6-6---------5-5-5-5-|----------6-6-5-5-8-8-8-8-6-6-6-6-|
--0-0-0-0---------0-0-0-0---------|--0-0-0-0-------------------------|


  S S S S S S S S S S S S S S S S    S S S S S S S S S S S S S S S S  
----------------------------------|----------------------------------|
----------------------------------|----------------------------------|
----------------------------------|----------------------------------|
----------------------------------|----------------------------------|
----------6-6-6-6---------5-5-5-5-|----------6-6-5-5-3-3-3-3-5-5-5-5-|
--0-0-0-0---------0-0-0-0---------|--0-0-0-0-------------------------|


  S S S S S S S S S S S S S S S S    S S S S S S S S S S S S S S S S  
----------------------------------|----------------------------------|
----------------------------------|----------------------------------|
----------------------------------|----------------------------------|
----------------------------------|----------------------------------|
----------6-6-6-6---------5-5-5-5-|----------6-6-5-5-8-8-8-8-6-6-6-6-|
--0-0-0-0---------0-0-0-0---------|--0-0-0-0-------------------------|


  S S S S S S S S S S S S S S S S    S S S S S S S S S S S S S S S S  
----------------------------------|----------------------------------|
----------------------------------|----------------------------------|
----------------------------------|----------------------------------|
----------------------------------|----------------------------------|
----------5-5-5-5---------6-6-6-6-|----------5-5-6-6---------6-6-8-8-|
--0-0-0-0---------0-0-0-0---------|--0-0-0-0---------0-0-0-0---------|


  S S S S S S S S S S S S S S S S    S S S S S S S S S S S S S S S S  
----------------------------------|----------------------------------|
----------------------------------|----------------------------------|
----------------------------------|----------------------------------|
----------------------------------|----------------------------------|
----------5-5-5-5---------6-6-6-6-|----------5-5-6-6-5-5-5-5-3-3-3-3-|
--0-0-0-0---------0-0-0-0---------|--0-0-0-0-------------------------|


  S S S S S S S S S S S S S S S S    S S S S S S S S S S S S S S S S  
----------------------------------|----------------------------------|
----------------------------------|----------------------------------|
----------------------------------|----------------------------------|
----------------------------------|----------------------------------|
----------5-5-5-5---------6-6-6-6-|----------5-5-6-6---------6-6-8-8-|
--0-0-0-0---------0-0-0-0---------|--0-0-0-0---------0-0-0-0---------|


  S S S S S S S S S S S S S S S S    S S S S S S S S S S S S S S S S  
----------------------------------|----------------------------------|
----------------------------------|----------------------------------|
----------------------------------|----------------------------------|
----------------------------------|----------------------------------|
----------5-5-5-5---------6-6-6-6-|----------5-5-6-6-5-5-5-5-3-3-3-3-|
--0-0-0-0---------0-0-0-0---------|--0-0-0-0-------------------------|


  H        H           H        H           H        H         
--------------------|--------------------|--------------------|
--------------------|--------------------|--------------------|
--------------------|--------------------|--------------------|
-----------8--------|--7--------5--------|-----------7--------|
--------------------|--------------------|--------------------|
--0-----------------|--------------------|--3-----------------|


  Q    Q    Q    Q       H        H           H        H         
----------------------|--------------------|--------------------|
----------------------|--------------------|--------------------|
----------------------|--------------------|--------------------|
--8----7----5----7----|-----------8--------|--7--------5--------|
----------------------|--------------------|--------------------|
----------------------|--5-----------------|--------------------|


  H        H           H        H           S S S S S S S S S S S S S S S S  
--------------------|--------------------|----------------------------------|
--------------------|--------------------|----------------------------------|
--------------------|--------------------|----------------------------------|
-----------3--------|--8--------7--------|------------------8-8-8-8-8-8-8-8-|
--------------------|--------------------|----------------------------------|
--3-----------------|--------------------|--0-0-0-0-0-0-0-0-----------------|


  S S S S S S S S S S S S S S S S    S S S S S S S S S S S S S S S S  
----------------------------------|----------------------------------|
----------------------------------|----------------------------------|
----------------------------------|----------------------------------|
--7-7-7-7-7-7-7-7-5-5-5-5-5-5-5-5-|------------------7-7-7-7-7-7-7-7-|
----------------------------------|----------------------------------|
----------------------------------|--3-3-3-3-3-3-3-3-----------------|


  S S S S S S S S S S S S S S S S    S S S S S S S S S S S S S S S S  
----------------------------------|----------------------------------|
----------------------------------|----------------------------------|
----------------------------------|----------------------------------|
--8-8-8-8-7-7-7-7-5-5-5-5-7-7-7-7-|------------------8-8-8-8-8-8-8-8-|
----------------------------------|----------------------------------|
----------------------------------|--5-5-5-5-5-5-5-5-----------------|


  S S S S S S S S S S S S S S S S    S S S S S S S S S S S S S S S S  
----------------------------------|----------------------------------|
----------------------------------|----------------------------------|
----------------------------------|----------------------------------|
--7-7-7-7-7-7-7-7-5-5-5-5-5-5-5-5-|------------------3-3-3-3-3-3-3-3-|
----------------------------------|----------------------------------|
----------------------------------|--3-3-3-3-3-3-3-3-----------------|


  S S S S S S S S S S S S S S S S      E  E  E  E  E  E  E  E   
----------------------------------||---------------------------|
----------------------------------||---------------------------|
----------------------------------||*--------------------------|
--8-8-8-8-8-8-8-8-7-7-7-7-7-7-7-7-||*--------------------------|
----------------------------------||---------------3--2--------|
----------------------------------||---0--0--0--0--3--2--0--0--|


  E  E  E  E  E  E  E  E     E  E  E  E  E  E  E  E   
--------------------------|--------------------------|
--------------------------|--------------------------|
--------------------------|--------------------------|
--------------------------|--------------------------|
--------1--0--------4--3--|--------------3--2--------|
--0--0--1--0--0--0--4--3--|--0--0--0--0--3--2--0--0--|


  E  E  E  E  E  E  E  E       E  E  E  E  E  E  E  E   
---------------------------||--------------------------|
---------------------------||--------------------------|
--------------------------*||--------------------------|
--------------------------*||--------------------------|
--4--3-----3--2-----1--0---||--4--3-----3--2-----1--0--|
--4--3--0--3--2--0--1--0---||--4--3--0--3--2--0--1--0--|


  S S S S S S S S S S S S S S S S    S S S S S S S S S S S S S S S S  
----------------------------------|----------------------------------|
----------------------------------|----------------------------------|
----------------------------------|----------------------------------|
----------------------------------|----------------------------------|
--5-5-5-5-5-5-5-5-5-5-5-5-5-5-5-5-|--5-5-5-5-5-5-5-5-7-7-7-7-7-7-7-7-|
----------------------------------|----------------------------------|


  S S S S S S S S S S S S S S S S    S S S S S S S S  S  S  S  S  S  S  S  S  
----------------------------------|------------------------------------------|
----------------------------------|------------------------------------------|
----------------------------------|------------------------------------------|
----------------------------------|------------------------------------------|
--8-8-8-8-8-8-8-8-8-8-8-8-8-8-8-8-|--8-8-8-8-8-8-8-8-10-10-10-10-10-10-10-10-|
----------------------------------|------------------------------------------|


  S S S S S S S S S S S S S S S S    S S S S S S S S S S S S S S S S  
----------------------------------|----------------------------------|
----------------------------------|----------------------------------|
----------------------------------|----------------------------------|
----------------------------------|----------------------------------|
--7-7-7-7-7-7-7-7-7-7-7-7-7-7-7-7-|--7-7-7-7-7-7-7-7-8-8-8-8-8-8-8-8-|
----------------------------------|----------------------------------|


   S  S  S  S  S  S  S  S  S  S  S  S  S  S  S  S        
--------------------------------------------------|-----|
--------------------------------------------------|-----|
--------------------------------------------------|-----|
--------------------------------------------------|-----|
--10-10-10-10-10-10-10-10-10-10-10-10-10-10-10-10-|-----|
--------------------------------------------------|-----|


    S S S S S S S S S S S S S S S S    S S S S S S S S S S S S  S  S  S  S  
|-----------------------------------|--------------------------------------|
|-----------------------------------|--------------------------------------|
|*----------------------------------|--------------------------------------|
|*----------------------------------|--------------------------------------|
|-----------8-8-7-7-8-8---------8-8-|--8-8-7-7-8-8-----8-8-8-8-10-10-10-10-|
|---0-0-0-0-------------0-0-0-0-----|--------------0-0---------------------|


  S S S S S S S S S S S S S S S S    S S S S S S S S S S S S S S S S    
----------------------------------|-----------------------------------||
----------------------------------|-----------------------------------||
----------------------------------|----------------------------------*||
----------------------------------|----------------------------------*||
----------8-8-7-7-8-8---------8-8-|--8-8-7-7-8-8-----8-8-8-8-7-7-7-7--||
--0-0-0-0-------------0-0-0-0-----|--------------0-0------------------||


  S S S S S S S S S S S S S S S S    S S S S S S S S S S S S S S S S  
----------------------------------|----------------------------------|
----------------------------------|----------------------------------|
----------------------------------|----------------------------------|
----------------------------------|----------------------------------|
----------8-8-7-7-8-8---------8-8-|--8-8-7-7-8-8-----8-8-8-8-7-7-7-7-|
--0-0-0-0-------------0-0-0-0-----|--------------0-0-----------------|


    E  E  E  E  E  E  E  E     E  E  E  E   E   E   E   E   
|---------------------------|------------------------------|
|---------------------------|------------------------------|
|*--------------------------|------------------------------|
|*--------------------------|------------------------------|
|---------8--7--8--------8--|--L--7--8-----10--10--10--10--|
|---0--0-----------0--0-----|-----------0------------------|


  E  E  E  E  E  E  E  E     E  E  E  E  E  E  E  E     
--------------------------|---------------------------||
--------------------------|---------------------------||
--------------------------|--------------------------*||
--------------------------|--------------------------*||
--------8--7--8--------8--|--L--7--8-----7--7--7--7---||
--0--0-----------0--0-----|-----------0---------------||


  E  E  E  E  E  E  E  E       S S S S S S S S S S S S S S S S  
--------------------------||-----------------------------------|
--------------------------||-----------------------------------|
--------------------------||*----------------------------------|
--------------------------||*----------------------------------|
-----7--8-----7--7--7--7--||-----------8-8-7-7-8-8---------8-8-|
-----------0--------------||---0-0-0-0-------------0-0-0-0-----|


  S S S S S S S S S S S S  S  S  S  S    S S S S S S S S S S S S S S S S  
--------------------------------------|----------------------------------|
--------------------------------------|----------------------------------|
--------------------------------------|----------------------------------|
--------------------------------------|----------------------------------|
--8-8-7-7-8-8-----8-8-8-8-10-10-10-10-|----------8-8-7-7-8-8---------8-8-|
--------------0-0---------------------|--0-0-0-0-------------0-0-0-0-----|


  S S S S S S S S S S S S S S S S      S S S S S S S S S S S S S S S S  
-----------------------------------||----------------------------------|
-----------------------------------||----------------------------------|
----------------------------------*||----------------------------------|
----------------------------------*||----------------------------------|
--8-8-7-7-8-8-----8-8-8-8-7-7-7-7--||--8-8-7-7-8-8-----8-8-8-8-7-7-7-7-|
--------------0-0------------------||--------------0-0-----------------|


  E  E  E  E  E  E  E  E     E  E  E  E  E  E  E  E   
--------------------------|--------------------------|
--------------------------|--------------------------|
--------------------------|--------------------------|
--------------------------|--------------------------|
--------------3--2--------|--------1--0--------4--3--|
--0--0--0--0--3--2--0--0--|--0--0--1--0--0--0--4--3--|


  E  E  E  E  E  E  E  E     S S S S S S S S S S S S S S S S  
--------------------------|----------------------------------|
--------------------------|----------------------------------|
--------------------------|----------------------------------|
--------------------------|----------------------------------|
--------------3--2--------|----------------------------------|
--0--0--0--0--3--2--0--0--|--3-3-3---3-3-3---1-1-1---1-1-1---|


  E  E  E  E  E  E  E  E     E  E  E  E  E  E  E  E   
--------------------------|--------------------------|
--------------------------|--------------------------|
--------------------------|--------------------------|
--------------------------|--------------------------|
--------------3--2--------|--------1--0--------4--3--|
--0--0--0--0--3--2--0--0--|--0--0--1--0--0--0--4--3--|


  E  E  E  E  E  E  E  E     E  E  E  E  E  E  E  E     E    
--------------------------|--------------------------|-----||
--------------------------|--------------------------|-----||
--------------------------|--------------------------|-----||
--------------------------|--------------------------|-----||
--------------3--2--------|--4--3-----3--2-----1--0--|--0--||
--0--0--0--0--3--2--0--0--|--4--3--0--3--2--0--1--0--|--0--||




Duration Legend
---------------
W - whole
H - half
Q - quarter
E - 8th
S - 16th
T - 32nd
X - 64th
. - note dotted
|-n-|  - n-tuplets


Tablature Legend
----------------
L - tied note
x - dead note
g - grace note
(n) - ghost note
> - accentuded note
NH - natural harmonic
AH - artificial harmonic
TH - tapped harmonic
SH - semi harmonic
PH - pitch harmonic
h - hammer on
p - pull off
b - bend
br - bendRelease
pb - preBend
pbr - preBendRelease
brb - bendReleaseBend
\n/ - tremolo bar dip
\n - tremolo bar dive
-/n - tremolo bar Release up
/n\ - tremolo bar inverted dip
/n - tremolo bar return
-\n - tremolo bar Release down
S - shift slide
s - legato slide
/ -  slide into from below or out of upwards
\ -  slide into from above or out of downwards
~ - vibrato
W - wide vibrato
tr - trill
TP - tremolo picking
T - tapping
S - slap
P - pop
< - fade in
^ - brush up
v - brush down





Comments


Popular Heaven Shall Burn tabs & chords
Profane Believers 2 Bass Tabs
Stay The Course 2 Bass Tabs
Voice Of The Voiceless 2 Bass Tabs
Architects Of The Apocalypse Tabs
Atonement Tabs
Atonement 1 Tabs
Black Tears Tabs
Dying In Silence Tabs
Like A Thousand Suns Tabs
Numbing The Pain Tabs


Song lyrics



↑ Back to top | Tablatures and chords are parodies/interpretations of the original songs. You may use it for private study, scholarship, research or language learning purposes only
© 2014 AZChords.com Contact us | Privacy policy | DMCA | Add/correct tabs | Request tabs | Top 50 tabs