» » »

Awoken Tabs (ver.1)

Artists:  A B C D E F G H I J K L M N O P Q R S T U V W X Y Z # 

Awoken Tabs (ver.1)

Heaven Shall Burn
Rating:
0/5 (0 votes)
Tabs too difficult? Try these video lessons and learn fast.
                Band/Song: Heaven Shall Burn - Awoken


Tuning: Standard


      Q     E   E   Q     E   E      E   E   E   Q     E   E   E   
E||--------15------13--------16--|---L--15------13--------13--15--|
B||--13--------13--------13------|----------13--------13----------|
G||------------------------------|--------------------------------|
D||------------------------------|--------------------------------|
A||------------------------------|--------------------------------|
E||------------------------------|--------------------------------|


   Q     E   E   Q     E   E      E   Q     Q     E   E   E   
--------15------13--------16--|---L--15----13--------13--15--|
--13--------13--------13------|------------------13----------|
------------------------------|------------------------------|
------------------------------|------------------------------|
------------------------------|------------------------------|
------------------------------|------------------------------|


   Q     E   E   Q     E   E      E   E   E   Q     E   E   E   
--------15------13--------16--|---L--15------13--------13--15--|
--13--------13--------13------|----------13--------13----------|
------------------------------|--------------------------------|
------------------------------|--------------------------------|
------------------------------|--------------------------------|
------------------------------|--------------------------------|


   Q     E   E   Q     E   E      E   E   E   Q     E   E   E    
--------15------13------------|--------------------------------||
--13--------13--------13--15--|---L--15------13--------13--15--||
------------------------------|----------12--------12----------||
------------------------------|--------------------------------||
------------------------------|--------------------------------||
------------------------------|--------------------------------||




Duration Legend
---------------
Q - quarter
E - 8th


Tablature Legend
----------------
L - tied note
            
Tabs too difficult? Try these video lessons and learn fast.


comments powered by Disqus
↑ Back to top | Tablatures and chords are parodies/interpretations of the original songs. You may use it for private study, scholarship, research or language learning purposes only