» » »

Heaven Shall Burn, Armia Tabs (ver.1)

Artists:  A B C D E F G H I J K L M N O P Q R S T U V W X Y Z # 

Armia Tabs (ver.1)

Heaven Shall Burn Tabs
 Rating:
3.5/5 (8 votes)
Armia lessons Tabs too difficult? Try these video lessons and learn fast
1
                 Tabed By: Taras Parashchak

/ = bend.
~ = let it tramble.


 Drop D
Guitar 1
0:00
E----------------------------------------------------------------------------|
B----------------------------------------------------------------------------|
G----------------------------------------------------------------------------|
D-----------------------8-10-8-5-3-5-5////-----------------------------------|
A--0-87-----5-87-----8-8-----------------------------------------------------|
D--0--------5--------8-------------------------------------------------------|

Guitar 2
0:07
E----------------------------------------------------------------------------|
B----------------------------------------------------------------------------|
G----------------------------------------------------------------------------|
D----------------------------------------------------------------------------|
A-0--------5--------8--------------------------------------------------------|
D-0--------5--------8--------------------------------------------------------|

Guitar 1 and 2
--------------------------------------------------------------------------------------|
--------------------------------------------------------------------------------------|
--------------------------------------------------------------------------------------|
-----------------------8-10-8-7-5-3-5-5//---------------------------8x-10-8-5-3-55//--|     2x
--0-87----5-87----8------------------------0-87-----5-87-----8x-----------------------|
--0--------5--------8------------------------0--------5--------8x---------------------|

--------------------------------------------------------------------------------------|
--------------------------------------------------------------------------------------|
--------------------------------------------------------------------------------------|
-----------------------8-10-8-7-5-3-5-5//--------------------------8x-10-8-5-3-7-7//--|
--0-87----5-87----8------------------------0-87-----5-87------8x----------------------|
--0--------5--------8------------------------0--------5--------8x---------------------|

-----------------------------------------------------------------------------------|
-----------------------------------------------------------------------------------|
-----------------------------------------------------------------------------------|
----------7-7-7-7--------7-7-7-7-------7-7-7-7-------7-7-3-3-----------------------|
-0-0-0-0--------5-5-5-5-------8-8-8-8-------8-8-8-8--------------------------------|
-0-0-0-0--------5-5-5-5-------8-8-8-8-------8-8-8-8--------------------------------|

-----------------------------------------------------------------------------------------|
-----------------------------------------------------------------------------------------|
-----------------------------------------------------------------------------------------|
----------7-7-7-7--------7-7-7-7-------7-7-7-7-----------------8-8-7-7-5-5-7-5-----------|
-0-0-0-0--------5-5-5-5-------8-8-8-8-------8-8-8-8-8-8-8-8------------------------------|
-0-0-0-0--------5-5-5-5-------8-8-8-8-------8-8-8-8-8-8-8-8------------------------------|


-----------------------------------------------------------------------------------|
-----------------------------------------------------------------------------------|
-----------------------------------------------------------------------------------|
0~~~~~~~~~~~~~~~~~~~~~~~~~~~~~~~~~~~~~~~~~~~~8-8-8-8-------------------------------|
0~~~~~~~~~~~~~~~~~~~~~~~~~~~~~~~~~~~~~~~~~~~~8-8-8-8-------------------------------|

Line 1
----------------------------------------------------------------------------------|
----------------------------------------------------------------------------------|
----------------------------------------------------------------------------------|
----------7-7-7-7--------7-7-7-7-------7-7-7-7-------7-7-3-3----------------------|
-0-0-0-0--------5-5-5-5-------8-8-8-8-------8-8-8-8-------------------------------|
-0-0-0-0--------5-5-5-5-------8-8-8-8-------8-8-8-8-------------------------------|


Line 2
-----------------------------------------------------------------------------------------|
-----------------------------------------------------------------------------------------|
-----------------------------------------------------------------------------------------|
----------7-7-7-7--------7-7-7-7-------7-7-7-7-------------------8-8-7-7-5-5-7-5---------|
-0-0-0-0--------5-5-5-5-------8-8-8-8-------8-8-8-8-8-8-8-8------------------------------|
-0-0-0-0--------5-5-5-5-------8-8-8-8-------8-8-8-8-8-8-8-8------------------------------|


Play line 1 and 2 a couple of times.


-------------------------------------------------------------------------------------------|
-------------------------------------------------------------------------------------------|
-------------------------------------------------------------------------------------------|
-------------------------------------------------------------------------------------------|        2x
-333333333333333888888888888888333333333333333111111111111111
-333333333333333888888888888888333333333333333111111111111111


Line 1
----------------------------------------------------------------------------------|
----------------------------------------------------------------------------------|
----------------------------------------------------------------------------------|
----------7-7-7-7--------7-7-7-7-------7-7-7-7-------7-7-3-3----------------------|
-0-0-0-0--------5-5-5-5-------8-8-8-8-------8-8-8-8-------------------------------|
-0-0-0-0--------5-5-5-5-------8-8-8-8-------8-8-8-8-------------------------------|


Line 2
-----------------------------------------------------------------------------------------|
-----------------------------------------------------------------------------------------|
-----------------------------------------------------------------------------------------|
----------7-7-7-7--------7-7-7-7-------7-7-7-7-------------------8-8-7-7-5-5-7-5---------|
-0-0-0-0--------5-5-5-5-------8-8-8-8-------8-8-8-8-8-8-8-8------------------------------|
-0-0-0-0--------5-5-5-5-------8-8-8-8-------8-8-8-8-8-8-8-8------------------------------|


-------------------------------------------------------------------------------------------|
-------------------------------------------------------------------------------------------|
-------------------------------------------------------------------------------------------|
-------------------------------------------------------------------------------------------|        2x
-333333333333333888888888888888333333333333333111111111111111
-333333333333333888888888888888333333333333333111111111111111

Guitar 1
---------------------------------------------------|
---------------------------------------------------|
---------------------------------------------------|
---------------------------------------------------|
-000000000555555558888888888888888- 4x
-000000000555555558888888888888888-


Guitar 2
-----------------------------------------------------------------------------------------|
-----------------------------------------------------------------------------------------|
-----------------------------------------------------------------------------------------|
---------7777---------7777--------7777---------------887755754X--------------------------|
-----------------------------------------------------------------------------------------|
-----------------------------------------------------------------------------------------|

Play a couple of times.
-------------------------------------------------------------------------------------------|
-------------------------------------------------------------------------------------------|
-------------------------------------------------------------------------------------------|
-------------------------------------------------------------------------------------------|
-333333333333333888888888888888333333333333333111111111111111
-333333333333333888888888888888333333333333333111111111111111


Play a Couple of Times
------------------------------------------------------------------|
------------------------------------------------------------------|
------------------------------------------------------------------|
------------------------------------------------------------------|
-0-2-2-0-2/-0-0-5-5-5-5-3-3-3-0-2-2-0-2-7-7-7-7-3-3-3-------------|
-0-2-2-0-2/-0-0-5-5-5-5-3-3-3-0-2-2-0-2-7-7-7-7-3-3-3-------------|

Play a couple of times.
-------------------------------------------------------------------------------------------|
-------------------------------------------------------------------------------------------|
-------------------------------------------------------------------------------------------|
-------------------------------------------------------------------------------------------|
-333333333333333888888888888888333333333333333111111111111111
-333333333333333888888888888888333333333333333111111111111111

Guitar 1
---------------------------------------------------|
---------------------------------------------------|
---------------------------------------------------|
---------------------------------------------------|
-000000000555555558888888888888888- 4x
-000000000555555558888888888888888-


Guitar 2
-----------------------------------------------------------------------------------------|
-----------------------------------------------------------------------------------------|
-----------------------------------------------------------------------------------------|
---------7777---------7777--------7777---------------887755754X--------------------------|
-----------------------------------------------------------------------------------------|
-----------------------------------------------------------------------------------------|

--------------------------------------------|
--------------------------------------------|
--------------------------------------------|
--------------------------------------------|
-0~~~~~~~~~~~~~~~~~~~~~~~~~
-0~~~~~~~~~~~~~~~~~~~~~~~~~
The End.
            
Submit corrections

comments powered by Disqus
↑ Back to top | Heaven Shall Burn Tabs for Armia. Lyrics for acoustic guitar and electric guitar. 1 Tablatures and chords are parodies/interpretations of the original songs. You may use it for private study, scholarship, research or language learning purposes only