>
 >
Still

Still Guitar Tabs

Heatmiser - Still chords, tabs, tablatures, lyrics

Guitar lessons | Add/correct | Request | Top 50 tabs Artists:  A B C D E F G H I J K L M N O P Q R S T U V W X Y Z 0-9

Still Guitar Tabs – Heatmiser

CD, Sheet music, Poster

Do you like Still? Share with your friends now
Tabs
song      : still
artist    : heatmiser

drop D tuning
capo on 1st fret, chords relative to capo


INTRO - palm muted

e-|----------------|----------------|----------------|----------------|
b-|----------------|----------------|----------------|----------------|
g-|5-----5-----5---|5-----5-----5---|5-----5-----5---|5-----5-----5---|
d-|0-----0-----0---|0-----0-----0---|0-----0-----0---|0-----0-----0---|
a-|--5-5---5-5---5-|--5-5---5-5---5-|--5-5---5-5---5-|--5-5---5-5---5-|
D-|----------------|----------------|----------------|----------------|
   ^ ' ^ ' ^ ' ^ ' |^ ' ^ ' ^ ' ^ ' |^ ' ^ ' ^ ' ^ ' |^ ' ^ ' ^ ' ^ ' |
   1   2   3   4    1   2   3   4    1   2   3   4    1   2   3   4    

e-|----------------|----------------|
b-|----------------|----------------|
g-|5-----5-----5---|5-----5-----5---|
d-|5-----5-----5---|5-----5-----5---|
a-|----------------|--3-3---3-3---3-|
D-|--3-3---3-3---3-|----------------|
   ^ ' ^ ' ^ ' ^ ' |^ ' ^ ' ^ ' ^ ' |
   1   2   3   4    1   2   3   4    

VERSE 1 - palm muted

e-|----------------|----------------|----------------|----------------|
b-|----------------|----------------|----------------|----------------|
g-|5-----5-----5---|5-----5-----5---|5-----5-----5---|5-----5-----5---|
d-|4-----4-----4---|4-----4-----4---|5-----5-----5---|5-----5-----5---|
a-|5-5-5-5-5-5-5-5-|5-5-5-5-5-5-5-5-|3-----3-----3---|3-3-3-3-3-3-3-3-|
D-|----------------|----------------|3-3-3-3-3-3-3-3-|----------------|
   ^ ' ^ ' ^ ' ^ ' |^ ' ^ ' ^ ' ^ ' |^ ' ^ ' ^ ' ^ ' |^ ' ^ ' ^ ' ^ ' |
   1   2   3   4    1   2   3   4    1   2   3   4    1   2   3   4    

e-|----------------|----------------|----------------|----------------|
b-|----------------|----------------|----------------|----------------|
g-|5-----5-----5---|5-----5-----5---|5-----5-----5---|5-----5-----5---|
d-|4-----4-----4---|4-----4-----4---|5-----5-----5---|4-----4-----4---|
a-|5-5-5-5-5-5-5-5-|5-5-5-5-5-5-5-5-|3-----3-----3---|5-----5-----5---|
D-|----------------|----------------|3-3-3-3-3-3-3-3-|4-4-4-4-4-4-4-4-|
   ^ ' ^ ' ^ ' ^ ' |^ ' ^ ' ^ ' ^ ' |^ ' ^ ' ^ ' ^ ' |^ ' ^ ' ^ ' ^ ' |
   1   2   3   4    1   2   3   4    1   2   3   4    1   2   3   4    


PRECHORUS 1 - GUITAR 1 - 2x

e-|----------------|----------------|----------------|----------------|
b-|3-----3---3-----|3-----3---3-----|3-----3---3-----|3-----3---3-----|
g-|3-----3---3-----|3-----3---3-----|3-----3---3-----|3-----3---3-----|
d-|3-----3---3-----|3-----3---3-----|5-5-5-5-5-5-5-5-|5-5-5-5-5-5-5-5-|
a-|1-1-1-1-1-1-1-1-|1-1-1-1-1-1-1-1-|5-5-5-5-5-5-5-5-|5-5-5-5-5-5-5-5-|
D-|----------------|----------------|----------------|----------------|
   ^ ' ^ ' ^ ' ^ ' |^ ' ^ ' ^ ' ^ ' |^ ' ^ ' ^ ' ^ ' |^ ' ^ ' ^ ' ^ ' |
   1   2   3   4    1   2   3   4    1   2   3   4    1   2   3   4    

PRECHORUS 1 - GUITAR 2 - 2x

e-|--------------------------------|--------------------------------|
b-|15----------15----------15-h16--|15----------15----------15------|
g-|--------------------------------|--------------------------------|
d-|--------------------------------|--------------------------------|
a-|--------------------------------|--------------------------------|
D-|--------------------------------|--------------------------------|
   ^ ' ' ' ^ ' ' ' ^ ' ' ' ^ ' ' ' |^ ' ' ' ^ ' ' ' ^ ' ' ' ^ ' ' ' |
   1       2       3       4        1       2       3       4        

e-|--------------------------------|--------------------------------|
b-|11----------11----------11------|11----------11----------11------|
g-|--------------------------------|--------------------------------|
d-|--------------------------------|--------------------------------|
a-|--------------------------------|--------------------------------|
D-|--------------------------------|--------------------------------|
   ^ ' ' ' ^ ' ' ' ^ ' ' ' ^ ' ' ' |^ ' ' ' ^ ' ' ' ^ ' ' ' ^ ' ' ' |
   1       2       3       4        1       2       3       4        


CHORUS 1

e-|--------------------------------|--------------------------------|
b-|----------------------------7---|----------------------------10--|
g-|----------------------------7---|----------------5--h7-------10--|
d-|8-------8-------5-----------7---|----------------5--h7-------10--|
a-|8-------8-------5-----------5---|----------------5-----------8---|
D-|8-------8-------5-----------0---|--------------------------------|
   ^ ' ' ' ^ ' ' ' ^ ' ' ' ^ ' ' ' |^ ' ' ' ^ ' ' ' ^ ' ' ' ^ ' ' ' |
   1       2       3       4        1       2       3       4        

e-|------------------------------------------------|
b-|------10----10----------------------------12b13b|
g-|------10----10----------------10----------12b13b|
d-|------10----10-------10-------10----------0-----|
a-|------8-----8--------10h12----------------0-----|
D-|------------------------------------------0-----|
   ^  '  '  '  ^  '  '  '  ^  '  '  '  ^  '  '  '  |
   1           2           3           4           

e-|------------------------------------------------|
b-|12----10----------------------------------3-----|
g-|12----10----------------------------------3-----|
d-|------0-----------------------1-----1-----3-----|
a-|------0-----------------------1-----1-----1-----|
D-|------0-----------------------1-----1-----------|
   ^  '  '  '  ^  '  '  '  ^  '  '  '  ^  '  '  '  |
   1           2           3           4           

e-|--------------------------------|--------------------------------|
b-|--------3-------------------7---|----------------------------10--|
g-|--------3-------------------7---|----------------5--h7-------10--|
d-|--------3-------5-----------7---|----------------5--h7-------10--|
a-|--------1-------5-----------5---|----------------5-----------8---|
D-|----------------5-----------0---|--------------------------------|
   ^ ' ' ' ^ ' ' ' ^ ' ' ' ^ ' ' ' |^ ' ' ' ^ ' ' ' ^ ' ' ' ^ ' ' ' |
   1       2       3       4        1       2       3       4        

e-|------------------------------------------------|
b-|------10----10----------------------------12b13b|
g-|------10----10----------------10----------12b13b|
d-|------10----10-------10-------10----------0-----|
a-|------8-----8--------10h12----------------0-----|
D-|------------------------------------------0-----|
   ^  '  '  '  ^  '  '  '  ^  '  '  '  ^  '  '  '  |
   1           2           3           4           

e-|------------------------------------------------|
b-|12----10----------------------------------------|
g-|12----10----------------------------------------|
d-|------0-----------------------------------------|
a-|------0-----------------------------------------|
D-|------0-----------------------------------------|
   ^  '  '  '  ^  '  '  '  ^  '  '  '  ^  '  '  '  |
   1           2           3           4           


VERSE 2 - palm muted

e-|----------------|----------------|----------------|----------------|
b-|----------------|----------------|----------------|----------------|
g-|5-----5-----5---|5-----5-----5---|5-----5-----5---|5-----5-----5---|
d-|4-----4-----4---|4-----4-----4---|5-----5-----5---|5-----5-----5---|
a-|5-5-5-5-5-5-5-5-|5-5-5-5-5-5-5-5-|3-----3-----3---|3-3-3-3-3-3-3-3-|
D-|----------------|----------------|3-3-3-3-3-3-3-3-|----------------|
   ^ ' ^ ' ^ ' ^ ' |^ ' ^ ' ^ ' ^ ' |^ ' ^ ' ^ ' ^ ' |^ ' ^ ' ^ ' ^ ' |
   1   2   3   4    1   2   3   4    1   2   3   4    1   2   3   4    

e-|----------------|----------------|----------------|----------------|
b-|----------------|----------------|----------------|----------------|
g-|5-----5-----5---|5-----5-----5---|5-----5-----5---|5-----5-----5---|
d-|4-----4-----4---|4-----4-----4---|5-----5-----5---|4-----4-----4---|
a-|5-5-5-5-5-5-5-5-|5-5-5-5-5-5-5-5-|3-----3-----3---|5-----5-----5---|
D-|----------------|----------------|3-3-3-3-3-3-3-3-|4-4-4-4-4-4-4-4-|
   ^ ' ^ ' ^ ' ^ ' |^ ' ^ ' ^ ' ^ ' |^ ' ^ ' ^ ' ^ ' |^ ' ^ ' ^ ' ^ ' |
   1   2   3   4    1   2   3   4    1   2   3   4    1   2   3   4    


PRECHORUS - GUITAR 1 - 2x

e-|----------------|----------------|----------------|----------------|
b-|3-----3---3-----|3-----3---3-----|3-----3---3-----|3-----3---3-----|
g-|3-----3---3-----|3-----3---3-----|3-----3---3-----|3-----3---3-----|
d-|3-----3---3-----|3-----3---3-----|5-5-5-5-5-5-5-5-|5-5-5-5-5-5-5-5-|
a-|1-1-1-1-1-1-1-1-|1-1-1-1-1-1-1-1-|5-5-5-5-5-5-5-5-|5-5-5-5-5-5-5-5-|
D-|----------------|----------------|----------------|----------------|
   ^ ' ^ ' ^ ' ^ ' |^ ' ^ ' ^ ' ^ ' |^ ' ^ ' ^ ' ^ ' |^ ' ^ ' ^ ' ^ ' |
   1   2   3   4    1   2   3   4    1   2   3   4    1   2   3   4    

PRECHORUS - GUITAR 2 - 2x

e-|--------------------------------|--------------------------------|
b-|15----------15----------15-h16--|15----------15----------15------|
g-|--------------------------------|--------------------------------|
d-|--------------------------------|--------------------------------|
a-|--------------------------------|--------------------------------|
D-|--------------------------------|--------------------------------|
   ^ ' ' ' ^ ' ' ' ^ ' ' ' ^ ' ' ' |^ ' ' ' ^ ' ' ' ^ ' ' ' ^ ' ' ' |
   1       2       3       4        1       2       3       4        

e-|--------------------------------|--------------------------------|
b-|11----------11----------11------|11----------11----------11------|
g-|--------------------------------|--------------------------------|
d-|--------------------------------|--------------------------------|
a-|--------------------------------|--------------------------------|
D-|--------------------------------|--------------------------------|
   ^ ' ' ' ^ ' ' ' ^ ' ' ' ^ ' ' ' |^ ' ' ' ^ ' ' ' ^ ' ' ' ^ ' ' ' |
   1       2       3       4        1       2       3       4        


CHORUS 2

e-|--------------------------------|--------------------------------|
b-|----------------------------7---|----------------------------10--|
g-|----------------------------7---|----------------5--h7-------10--|
d-|8-------8-------5-----------7---|----------------5--h7-------10--|
a-|8-------8-------5-----------5---|----------------5-----------8---|
D-|8-------8-------5-----------0---|--------------------------------|
   ^ ' ' ' ^ ' ' ' ^ ' ' ' ^ ' ' ' |^ ' ' ' ^ ' ' ' ^ ' ' ' ^ ' ' ' |
   1       2       3       4        1       2       3       4        

e-|------------------------------------------------|
b-|------10----10----------------------------12b13b|
g-|------10----10----------------10----------12b13b|
d-|------10----10-------10-------10----------0-----|
a-|------8-----8--------10h12----------------0-----|
D-|------------------------------------------0-----|
   ^  '  '  '  ^  '  '  '  ^  '  '  '  ^  '  '  '  |
   1           2           3           4           

e-|------------------------------------------------|
b-|12----10----------------------------------3-----|
g-|12----10----------------------------------3-----|
d-|------0-----------------------1-----1-----3-----|
a-|------0-----------------------1-----1-----1-----|
D-|------0-----------------------1-----1-----------|
   ^  '  '  '  ^  '  '  '  ^  '  '  '  ^  '  '  '  |
   1           2           3           4           

e-|--------------------------------|--------------------------------|
b-|--------3-------------------7---|----------------------------10--|
g-|--------3-------------------7---|----------------5--h7-------10--|
d-|--------3-------5-----------7---|----------------5--h7-------10--|
a-|--------1-------5-----------5---|----------------5-----------8---|
D-|----------------5-----------0---|--------------------------------|
   ^ ' ' ' ^ ' ' ' ^ ' ' ' ^ ' ' ' |^ ' ' ' ^ ' ' ' ^ ' ' ' ^ ' ' ' |
   1       2       3       4        1       2       3       4        

e-|------------------------------------------------|
b-|------10----10----------------------------12b13b|
g-|------10----10----------------10----------12b13b|
d-|------10----10-------10-------10----------0-----|
a-|------8-----8--------10h12----------------0-----|
D-|------------------------------------------0-----|
   ^  '  '  '  ^  '  '  '  ^  '  '  '  ^  '  '  '  |
   1           2           3           4           

e-|------------------------------------------------|
b-|12----10----------------------------------------|
g-|12----10----------------------------------------|
d-|------0-----------------------10----9-----8-----|
a-|------0-----------------------10----9-----8-----|
D-|------0-----------------------10----9-----8-----|
   ^  '  '  '  ^  '  '  '  ^  '  '  '  ^  '  '  '  |
   1           2           3           4           

e-|--------------------------------|--------------------------------|
b-|----------------------------7---|----------------------------10--|
g-|----------------------------7---|----------------5--h7-------10--|
d-|--------8-------5-----------7---|----------------5--h7-------10--|
a-|--------8-------5-----------5---|----------------5-----------8---|
D-|--------8-------5-----------0---|--------------------------------|
   ^ ' ' ' ^ ' ' ' ^ ' ' ' ^ ' ' ' |^ ' ' ' ^ ' ' ' ^ ' ' ' ^ ' ' ' |
   1       2       3       4        1       2       3       4        

e-|------------------------------------------------|
b-|------10----10----------------------------12b13b|
g-|------10----10----------------10----------12b13b|
d-|------10----10-------10-------10----------0-----|
a-|------8-----8--------10h12----------------0-----|
D-|------------------------------------------0-----|
   ^  '  '  '  ^  '  '  '  ^  '  '  '  ^  '  '  '  |
   1           2           3           4           

e-|------------------------------------------------|
b-|12----10----------------------------------3-----|
g-|12----10----------------------------------3-----|
d-|------0-----------------------1-----1-----3-----|
a-|------0-----------------------1-----1-----1-----|
D-|------0-----------------------1-----1-----------|
   ^  '  '  '  ^  '  '  '  ^  '  '  '  ^  '  '  '  |
   1           2           3           4           

e-|--------------------------------|--------------------------------|
b-|--------3-------------------7---|----------------------------10--|
g-|--------3-------------------7---|----------------5--h7-------10--|
d-|--------3-------5-----------7---|----------------5--h7-------10--|
a-|--------1-------5-----------5---|----------------5-----------8---|
D-|----------------5-----------0---|--------------------------------|
   ^ ' ' ' ^ ' ' ' ^ ' ' ' ^ ' ' ' |^ ' ' ' ^ ' ' ' ^ ' ' ' ^ ' ' ' |
   1       2       3       4        1       2       3       4        

e-|------------------------------------------------|
b-|------10----10----------------------------12b13b|
g-|------10----10----------------10----------12b13b|
d-|------10----10-------10-------10----------0-----|
a-|------8-----8--------10h12----------------0-----|
D-|------------------------------------------0-----|
   ^  '  '  '  ^  '  '  '  ^  '  '  '  ^  '  '  '  |
   1           2           3           4           

e-|------------------------------------------------|
b-|12----10----------------------------------------|
g-|12----10----------------------------------------|
d-|------0-----------------------------------------|
a-|------0-----------------------------------------|
D-|------0-----------------------------------------|
   ^  '  '  '  ^  '  '  '  ^  '  '  '  ^  '  '  '  |
   1           2           3           4           


BRIDGE - Variation on VERSE/PRECHORUS


LAST VERSE

e-|----------------|----------------|----------------|----------------|
b-|----------------|----------------|----------------|----------------|
g-|5-----5-----5---|5-----5-----5---|5-----5-----5---|5-----5-----5---|
d-|4-----4-----4---|4-----4-----4---|5-----5-----5---|4-----4-----4---|
a-|5-5-5-5-5-5-5-5-|5-5-5-5-5-5-5-5-|3-----3-----3---|5-----5-----5---|
D-|----------------|----------------|3-3-3-3-3-3-3-3-|4-4-4-4-4-4-4-4-|
   ^ ' ^ ' ^ ' ^ ' |^ ' ^ ' ^ ' ^ ' |^ ' ^ ' ^ ' ^ ' |^ ' ^ ' ^ ' ^ ' |
   1   2   3   4    1   2   3   4    1   2   3   4    1   2   3   4    


LAST CHORUS

e-|--------------------------------|--------------------------------|
b-|----------------------------7---|----------------------------10--|
g-|----------------------------7---|----------------5--h7-------10--|
d-|8-------8-------5-----------7---|----------------5--h7-------10--|
a-|8-------8-------5-----------5---|----------------5-----------8---|
D-|8-------8-------5-----------0---|--------------------------------|
   ^ ' ' ' ^ ' ' ' ^ ' ' ' ^ ' ' ' |^ ' ' ' ^ ' ' ' ^ ' ' ' ^ ' ' ' |
   1       2       3       4        1       2       3       4        

e-|------------------------------------------------|
b-|------10----10----------------------------12b13b|
g-|------10----10----------------10----------12b13b|
d-|------10----10-------10-------10----------0-----|
a-|------8-----8--------10h12----------------0-----|
D-|------------------------------------------0-----|
   ^  '  '  '  ^  '  '  '  ^  '  '  '  ^  '  '  '  |
   1           2           3           4           

e-|------------------------------------------------|
b-|12----10----------------------------------3-----|
g-|12----10----------------------------------3-----|
d-|------0-----------------------1-----1-----3-----|
a-|------0-----------------------1-----1-----1-----|
D-|------0-----------------------1-----1-----------|
   ^  '  '  '  ^  '  '  '  ^  '  '  '  ^  '  '  '  |
   1           2           3           4           

e-|--------------------------------|--------------------------------|
b-|--------3-------------------7---|----------------------------10--|
g-|--------3-------------------7---|----------------5--h7-------10--|
d-|--------3-------5-----------7---|----------------5--h7-------10--|
a-|--------1-------5-----------5---|----------------5-----------8---|
D-|----------------5-----------0---|--------------------------------|
   ^ ' ' ' ^ ' ' ' ^ ' ' ' ^ ' ' ' |^ ' ' ' ^ ' ' ' ^ ' ' ' ^ ' ' ' |
   1       2       3       4        1       2       3       4        

e-|------------------------------------------------|
b-|------10----10----------------------------12b13b|
g-|------10----10----------------10----------12b13b|
d-|------10----10-------10-------10----------0-----|
a-|------8-----8--------10h12----------------0-----|
D-|------------------------------------------0-----|
   ^  '  '  '  ^  '  '  '  ^  '  '  '  ^  '  '  '  |
   1           2           3           4           

e-|------------------------------------------------|
b-|12----10----------------------------------------|
g-|12----10----------------------------------------|
d-|------0-----------------------10----9-----8-----|
a-|------0-----------------------10----9-----8-----|
D-|------0-----------------------10----9-----8-----|
   ^  '  '  '  ^  '  '  '  ^  '  '  '  ^  '  '  '  |
   1           2           3           4           

e-|--------------------------------|--------------------------------|
b-|----------------------------7---|----------------------------10--|
g-|----------------------------7---|----------------5--h7-------10--|
d-|--------8-------5-----------7---|----------------5--h7-------10--|
a-|--------8-------5-----------5---|----------------5-----------8---|
D-|--------8-------5-----------0---|--------------------------------|
   ^ ' ' ' ^ ' ' ' ^ ' ' ' ^ ' ' ' |^ ' ' ' ^ ' ' ' ^ ' ' ' ^ ' ' ' |
   1       2       3       4        1       2       3       4        

e-|------------------------------------------------|
b-|------10----10----------------------------------|
g-|------10----10----------------10----------------|
d-|------10----10-------10-------10----------8-----|
a-|------8-----8--------10h12----------------8-----|
D-|------------------------------------------8-----|
   ^  '  '  '  ^  '  '  '  ^  '  '  '  ^  '  '  '  |
   1           2           3           4           

e-|------------------------------------------------|
b-|------------12----------10----12----------------|
g-|------------12----------10----12----------------|
d-|------------------------------------------8-----|
a-|------------------------------------------8-----|
D-|------------------------------------------8-----|
   ^  '  '  '  ^  '  '  '  ^  '  '  '  ^  '  '  '  |
   1           2           3           4           

e-|--------------------------------|--------------------------------|
b-|----------------------------7---|----------------------------10--|
g-|----------------------------7---|----------------5--h7-------10--|
d-|--------8-------5-----------7---|----------------5--h7-------10--|
a-|--------8-------5-----------5---|----------------5-----------8---|
D-|--------8-------5-----------0---|--------------------------------|
   ^ ' ' ' ^ ' ' ' ^ ' ' ' ^ ' ' ' |^ ' ' ' ^ ' ' ' ^ ' ' ' ^ ' ' ' |
   1       2       3       4        1       2       3       4        

e-|------------------------------------------------|
b-|------10----10----------------------------------|
g-|------10----10----------------10----------------|
d-|------10----10-------10-------10----------8-----|
a-|------8-----8--------10h12----------------8-----|
D-|------------------------------------------8-----|
   ^  '  '  '  ^  '  '  '  ^  '  '  '  ^  '  '  '  |
   1           2           3           4           

e-|------------------------------------------------|
b-|------------12----------10----12----------------|
g-|------------12----------10----12----------------|
d-|------------------------------------------8-----|
a-|------------------------------------------8-----|
D-|------------------------------------------8-----|
   ^  '  '  '  ^  '  '  '  ^  '  '  '  ^  '  '  '  |
   1           2           3           4           

e-|--------------------------------|--------------------------------|
b-|----------------------------7---|----------------------------10--|
g-|----------------------------7---|----------------5--h7-------10--|
d-|--------8-------5-----------7---|----------------5--h7-------10--|
a-|--------8-------5-----------5---|----------------5-----------8---|
D-|--------8-------5-----------0---|--------------------------------|
   ^ ' ' ' ^ ' ' ' ^ ' ' ' ^ ' ' ' |^ ' ' ' ^ ' ' ' ^ ' ' ' ^ ' ' ' |
   1       2       3       4        1       2       3       4        

e-|------------------------------------------------|
b-|------10----10----------------------------------|
g-|------10----10----------------10----------------|
d-|------10----10-------10-------10----------8-----|
a-|------8-----8--------10h12----------------8-----|
D-|------------------------------------------8-----|
   ^  '  '  '  ^  '  '  '  ^  '  '  '  ^  '  '  '  |
   1           2           3           4           

e-|------------------------------------------------|
b-|------------12----------10----12----------------|
g-|------------12----------10----12----------------|
d-|------------------------------------------8-----|
a-|------------------------------------------8-----|
D-|------------------------------------------8-----|
   ^  '  '  '  ^  '  '  '  ^  '  '  '  ^  '  '  '  |
   1           2           3           4           

e-|--------------------------------|--------------------------------|
b-|----------------------------7---|----------------------------10--|
g-|----------------------------7---|----------------5--h7-------10--|
d-|--------8-------5-----------7---|----------------5--h7-------10--|
a-|--------8-------5-----------5---|----------------5-----------8---|
D-|--------8-------5-----------0---|--------------------------------|
   ^ ' ' ' ^ ' ' ' ^ ' ' ' ^ ' ' ' |^ ' ' ' ^ ' ' ' ^ ' ' ' ^ ' ' ' |
   1       2       3       4        1       2       3       4        

e-|------------------------------------------------|
b-|------10----10----------------------------------|
g-|------10----10----------------10----------7-----|
d-|------10----10-------10-------10----------0-----|
a-|------8-----8--------10h12----------------0-----|
D-|------------------------------------------0-----|
   ^  '  '  '  ^  '  '  '  ^  '  '  '  ^  '  '  '  |
   1           2           3           4           





Comments


Popular Heatmiser tabs & chords
Bastard John Chords
Blue Highway Tabs
Bottle Rocket Tabs
Can't Be Touched Tabs
Flame! Tabs
Low-flying Jets Tabs
Nightcap Tabs
Pop In G Tabs
Sands Hotel Tabs
Why Did I Decide To Stay? Tabs


Song lyrics



↑ Back to top | Tablatures and chords are parodies/interpretations of the original songs. You may use it for private study, scholarship, research or language learning purposes only
© 2014 AZChords.com Contact us | Privacy policy | DMCA | Add/correct tabs | Request tabs | Top 50 tabs