>
 >
Pop In G

Pop In G Guitar Tabs

Heatmiser - Pop In G chords, tabs, tablatures, lyrics

Guitar lessons | Add/correct | Request | Top 50 tabs Artists:  A B C D E F G H I J K L M N O P Q R S T U V W X Y Z 0-9

Pop In G Guitar Tabs – Heatmiser

CD, Sheet music, Poster

Do you like Pop In G? Share with your friends now
Tabs
song      : pop in g
artist    : heatmiser

standard tuning


INTRO

e-|----------------|----------------|
b-|----------------|----------------|
g-|----0-0-0-0-0-0-|0-0-0-0-0-0-0-0-|
d-|----0-0-0-0-2-3-|3-3-3-3-3-3-2-0-|
a-|----------------|----------------|
E-|3---------------|----------------|
  |^ ' ^ ' ^ ' ^ ' |^ ' ^ ' ^ ' ^ ' |
   1   2   3   4    1   2   3   4    


VERSE - GUITAR 1 - palm muted

e-|----------------|----------------|----------------|----------------|
b-|----------------|----------------|----------------|----------------|
g-|----------------|----------------|--------------5-|5-5-5-5-5-5-5-5-|
d-|5-5-5-5-5-5-5-5-|5-5-5-5-5-5-5-5-|5-5-5-5-4-4-4-5-|5-5-5-5-5-5-5-5-|
a-|5-5-5-5-5-5-5-5-|5-5-5-5-5-5-5-5-|5-5-5-5-4-4-4-3-|3-3-3-3-3-3-3-3-|
E-|3-3-3-3-3-3-3-3-|3-3-3-3-3-3-3-3-|3-3-3-3-2-2-2---|----------------|
  |^ ' ^ ' ^ ' ^ ' |^ ' ^ ' ^ ' ^ ' |^ ' ^ ' ^ ' ^ ' |^ ' ^ ' ^ ' ^ ' |
   1   2   3   4    1   2   3   4    1   2   3   4    1   2   3   4    

VERSE - GUITAR 2

e-|----------------|----------------|----------------|----------------|
b-|----------------|----------------|3-------2-----3-|----------------|
g-|----------------|----------------|----------------|----------------|
d-|----------------|----------------|----------------|----------------|
a-|----------------|----------------|----------------|----------------|
E-|----------------|----------------|----------------|----------------|
  |^ ' ^ ' ^ ' ^ ' |^ ' ^ ' ^ ' ^ ' |^ ' ^ ' ^ ' ^ ' |^ ' ^ ' ^ ' ^ ' |
   1   2   3   4    1   2   3   4    1   2   3   4    1   2   3   4    


CHORUS

e-|------------------------|------------------------|
b-|------------------------|------------------------|
g-|7-----8-----8--8-----9--|------9-----9-----9-----|
d-|8-----8-----8--8-----10-|------10----10----10----|
a-|8-----6-----6--6-----10-|------10----10----10----|
E-|6--------------------8--|------8-----8-----8-----|
   ^  '  ^  '  ^  '  ^  '  |^  '  ^  '  ^  '  ^  '  |
   1     2     3     4      1     2     3     4      

e-|------------------------|------------------------|
b-|------------------------|------------------------|
g-|7--7--2-----2--2-----8--|---8--8-----8-----8-----|
d-|8--8--3-----3--3-----8--|---8--8-----8-----8-----|
a-|8--8--3-----3--3-----6--|---6--6-----6-----6-----|
E-|6--6--1-----1--1--------|------------------------|
   ^  '  ^  '  ^  '  ^  '  |^  '  ^  '  ^  '  ^  '  |
   1     2     3     4      1     2     3     4      

e-|------------------------|------------------------|
b-|------------------------|------------------------|
g-|7-----8-----8--8-----9--|------9-----9-----9-----|
d-|8-----8-----8--8-----10-|------10----10----10----|
a-|8-----6-----6--6-----10-|------10----10----10----|
E-|6--------------------8--|------8-----8-----8-----|
   ^  '  ^  '  ^  '  ^  '  |^  '  ^  '  ^  '  ^  '  |
   1     2     3     4      1     2     3     4      

e-|------------------------|------------------------|
b-|------------------------|------------------------|
g-|7--7--2-----2--2-----8--|---8--8-----8--8--8-----|
d-|8--8--3-----3--3-----8--|---8--8-----8--8--8-----|
a-|8--8--3-----3--3-----6--|---6--6-----6--6--6-----|
E-|6--6--1-----1--1--------|------------------------|
   ^  '  ^  '  ^  '  ^  '  |^  '  ^  '  ^  '  ^  '  |
   1     2     3     4      1     2     3     4      


GUITAR 2 over VERSE - 2x
[ ] - 2nd time only

e-|--------------------------------------------------|
b-|[/12]---------12----12-12-12----13----15----12----|
g-|[/12]---------12----12-12-12----14----16----12----|
d-|--------------------------------------------------|
a-|--------------------------------------------------|
E-|--------------------------------------------------|
     ^  '  '  '  ^  '  '  '  ^  '  '  '  ^  '  '  '  |
     1           2           3           4           

e-|------------------------------------------------|
b-|------12----12----12-12-12----12----13----15----|
g-|------12----12----12-12-12----12----14----16----|
d-|------------------------------------------------|
a-|------------------------------------------------|
E-|------------------------------------------------|
   ^  '  '  '  ^  '  '  '  ^  '  '  '  ^  '  '  '  |
   1           2           3           4           

e-|------------------------------------------------|
b-|12----------12-------11-11----11----------8-----|
g-|12----------12-------11-11----11----------5-----|
d-|------------------------------------------------|
a-|------------------------------------------------|
E-|------------------------------------------------|
   ^  '  '  '  ^  '  '  '  ^  '  '  '  ^  '  '  '  |
   1           2           3           4           

e-|------------------------------------------------|
b-|------------8-----------8-----------8-----------|
g-|------5-----5-----5-----5-----5-----5-----------|
d-|------------------------------------------------|
a-|------------------------------------------------|
E-|------------------------------------------------|
   ^  '  '  '  ^  '  '  '  ^  '  '  '  ^  '  '  '  |
   1           2           3           4           


GUITAR 2 over CHORUS

e-|--------------------------------|--------------------------------|
b-|----------------------------5---|----5---3---5-------3-----------|
g-|--------------------------------|--------------------------------|
d-|--------------------------------|--------------------------------|
a-|--------------------------------|--------------------------------|
E-|--------------------------------|--------------------------------|
   ^ ' ' ' ^ ' ' ' ^ ' ' ' ^ ' ' ' |^ ' ' ' ^ ' ' ' ^ ' ' ' ^ ' ' ' |
   1       2       3       4        1       2       3       4        

e-|----1-------1-------------------|--------------------------------|
b-|--------3-------3---1-------4---|----3P1-------------------------|
g-|--------------------------------|--------3-----------------------|
d-|--------------------------------|--------------------------------|
a-|--------------------------------|--------------------------------|
E-|--------------------------------|--------------------------------|
   ^ ' ' ' ^ ' ' ' ^ ' ' ' ^ ' ' ' |^ ' ' ' ^ ' ' ' ^ ' ' ' ^ ' ' ' |
   1       2       3       4        1       2       3       4        

e-|--------------------------------|----3---------------------------|
b-|---------------------------/5---|--------5---5-------3-----------|
g-|--------------------------------|--------------------------------|
d-|--------------------------------|--------------------------------|
a-|--------------------------------|--------------------------------|
E-|--------------------------------|--------------------------------|
   ^ ' ' ' ^ ' ' ' ^ ' ' ' ^ ' ' ' |^ ' ' ' ^ ' ' ' ^ ' ' ' ^ ' ' ' |
   1       2       3       4        1       2       3       4        

e-|----1-------1-------------------|--------------------------------|
b-|--------3-------3---1-------4---|----3---1-----------1-----------|
g-|------------------------3-------|------------3-----------3---0---|
d-|--------------------------------|--------------------------------|
a-|--------------------------------|--------------------------------|
E-|--------------------------------|--------------------------------|
   ^ ' ' ' ^ ' ' ' ^ ' ' ' ^ ' ' ' |^ ' ' ' ^ ' ' ' ^ ' ' ' ^ ' ' ' |
   1       2       3       4        1       2       3       4        


END with INTRO, VERSE, CHORUS





Comments


Popular Heatmiser tabs & chords
Bastard John Chords
Blue Highway Tabs
Bottle Rocket Tabs
Can't Be Touched Tabs
Flame! Tabs
Low-flying Jets Tabs
Nightcap Tabs
Sands Hotel Tabs
Still Tabs
Why Did I Decide To Stay? Tabs


Song lyrics



↑ Back to top | Tablatures and chords are parodies/interpretations of the original songs. You may use it for private study, scholarship, research or language learning purposes only
© 2014 AZChords.com Contact us | Privacy policy | DMCA | Add/correct tabs | Request tabs | Top 50 tabs