» » »

Low-flying Jets Tabs (ver.1)

Artists:  A B C D E F G H I J K L M N O P Q R S T U V W X Y Z # 

Low-flying Jets Tabs (ver.1)

Heatmiser
Rating:
0/5 (0 votes)

Tabs too difficult? Try these video lessons and learn fast.
                song      : low-flying jets
artist    : heatmiser

tuned down one step


INTRO    [<---------------------- 2x ----------------------->]
     
e-|------||------------------------|0--0-----------0--------||
b-|------||------------3-----3-----|0--0-----2-----2--------||
g-|---4/-||7-----7-----4-----4-----|0--0-----2-----2-----4/-||
d-|---2/-||5-----5-----5-----5-----|2--2-----2-----2-----2/-||
a-|---2/-||5-----5-----5-----5-----|2--2-----0-----0-----2/-||
E-|------||------------3-----3-----|0--0--------------------||
  |^  '  ||^  '  ^  '  ^  '  ^  '  |^  '  ^  '  ^  '  ^  '  ||
   4       1     2     3     4      1     2     3     4      


VERSE

e-|------------------------|0--0-----------0--------|
b-|------------3-----3-----|0--0-----2-----2--------|
g-|7-----7-----4-----4-----|0--0-----2-----2-----4/-|
d-|5-----5-----5-----5-----|2--2-----2-----2-----2/-| 3x
a-|5-----5-----5-----5-----|2--2-----0-----0-----2/-|
E-|------------3-----3-----|0--0--------------------|
  |^  '  ^  '  ^  '  ^  '  |^  '  ^  '  ^  '  ^  '  |
   1     2     3     4      1     2     3     4      

e-|------------------------|0--0-----------0--------|
b-|------------3-----3-----|0--0-----2-----2-----8--|
g-|7-----7-----4-----4-----|0--0-----2-----2-----9--|
d-|5-----5-----5-----5-----|2--2-----2-----2-----9--|
a-|5-----5-----5-----5-----|2--2-----0-----0-----7--|
E-|------------3-----3-----|0--0-----------------0--|
  |^  '  ^  '  ^  '  ^  '  |^  '  ^  '  ^  '  ^  '  |
   1     2     3     4      1     2     3     4      

e-|---------3--3-----------|3--3-----5-----5--------|
b-|8--------3--3-----------|3--3-----5-----5-----8--|
g-|9--------4--4-----------|4--4-----6-----6-----9--|
d-|9--------5--5-----------|5--5-----7-----7-----9--| 3x
a-|7--------5--5-----------|5--5-----7-----7-----7--|
E-|0--------3--3-----------|3--3-----5-----5-----0--|
  |^  '  ^  '  ^  '  ^  '  |^  '  ^  '  ^  '  ^  '  |
   1     2     3     4      1     2     3     4      

e-|---------3--3-----------|3--3-----5-----5--------|
b-|8--------3--3-----------|3--3-----5-----5--------|
g-|9--------4--4-----------|4--4-----6-----6--------|
d-|9--------5--5-----------|5--5-----7-----7--------|
a-|7--------5--5-----------|5--5-----7-----7--------|
E-|0--------3--3-----------|3--3-----5-----5--------|
  |^  '  ^  '  ^  '  ^  '  |^  '  ^  '  ^  '  ^  '  |
   1     2     3     4      1     2     3     4      


CHORUS - 2x

e-|----------------|----------------|--------3---3---|
b-|5---5---8---8---|5---5---3---3---|2---2---3---3---|
g-|5---5---7---7---|6---6---4---4---|2---2---4---4---|
d-|5---5---5---5---|7---7---5---5---|2---2---5---5---|
a-|3---3---5---5---|0---0---5---5---|4---4---5---5---|
E-|----------------|--------3---3---|--------3---3---|
   ^ ' ^ ' ^ ' ^ ' |^ ' ^ ' ^ ' ^ ' |^ ' ^ ' ^ ' ^ ' |
   1   2   3   4    1   2   3   4    1   2   3   4    

BRIDGE - 4x
e-|-------------------------------------------------------------------|
b-|-------------------------------------------------------------------|
g-|0-0-0-0-0-0-0-0-|0-0-0-2-2-2-2-2-|0-0-0-0-0-0-0-0-|2-2-2-0-0-0-0-0-|
d-|2-2-2-2-2-2-2-2-|0-0-0-0-0-0-0-0-|2-2-2-2-2-2-2-2-|2-2-2-0-0-0-0-0-|
a-|2-2-2-2-2-2-2-2-|x-x-x-0-0-0-0-0-|3-3-3-3-3-3-3-3-|0-0-0-x-x-x-x-x-|
E-|0-0-0-0-0-0-0-0-|3-3-3-2-2-2-2-2-|----------------|------3-3-3-3-3-|
   ^ ' ^ ' ^ ' ^ ' |^ ' ^ ' ^ ' ^ ' |^ ' ^ ' ^ ' ^ ' |^ ' ^ ' ^ ' ^ ' |
   1   2   3   4    1   2   3   4    1   2   3   4    1   2   3   4    


END with VERSE
            
Tabs too difficult? Try these video lessons and learn fast.




comments powered by Disqus
↑ Back to top | Tablatures and chords are parodies/interpretations of the original songs. You may use it for private study, scholarship, research or language learning purposes only