>
 >
Flame!

Flame! Guitar Tabs

Heatmiser - Flame! chords, tabs, tablatures, lyrics

Guitar lessons | Add/correct | Request | Top 50 tabs Artists:  A B C D E F G H I J K L M N O P Q R S T U V W X Y Z 0-9

Flame! Guitar Tabs – Heatmiser

CD, Sheet music, Poster

Do you like Flame!? Share with your friends now
Tabs
song      : flame!
artist    : heatmiser

tuned down one step


INTRO

e-|--------------------------------|--------------------------------|
b-|--------------------------------|--------------------------------|
g-|--------0-----------0-----------|0---0---0---0---0---0---0---0---|
d-|--------x-----------x-----------|x---x---x---x---x---x---x---x---|
a-|--------10----------10----------|10--10--10--10--10--10--10--10--|
E-|--------------------------------|--------------------------------|
   ^   '   ^   '   ^   '   ^   '    ^   '   ^   '   ^   '   ^   '   |
   1       2       3       4        1       2       3       4       


VERSE - 2x

e-|--------------------------------|--------------------------------|
b-|--------------------------------|--------------------------------|
g-|--------------------------------|--------------------------------|
d-|5---------------------------8---|----7---------------8-------5---|
a-|5---------------------------6---|----5---------------8-------5---|
E-|3-------------------------------|--------------------6-------3---|
   ^   '   ^   '   ^   '   ^   '    ^   '   ^   '   ^   '   ^   '   |
   1       2       3       4        1       2       3       4       

e-|--------------------------------|--------------------------------|
b-|--------------------------------|--------------------------------|
g-|--------0-----------0-----------|0---0---0---0---0---0---0---0---|
d-|--------x-----------x-----------|x---x---x---x---x---x---x---x---|
a-|--------10----------10----------|10--10--10--10--10--10--10--10--|
E-|--------------------------------|--------------------------------|
   ^   '   ^   '   ^   '   ^   '    ^   '   ^   '   ^   '   ^   '   |
   1       2       3       4        1       2       3       4       


PRECHORUS

e-|--------------------------------|--------------------------------|
b-|--------------------------------|--------------------------------|
g-|8-------8-------10--10------9---|----9-----------------------7---|
d-|8-------8-------10--10------10--|----10------5---------------8---|
a-|6-------6-------8---8-------10--|----10------5---------------8---|
E-|----------------------------8---|----8-------3---------------6---|
   ^   '   ^   '   ^   '   ^   '    ^   '   ^   '   ^   '   ^   '   |
   1       2       3       4        1       2       3       4       

   listen for strumming pattern
e-|--------------------------------|--------------------------------|
b-|--------------------------------|--------------------------------|
g-|--------7-------7-------7---8---|--------8-------8-------8-------|
d-|--------8-------8-------8---8---|--------8-------8-------8-------|
a-|--------8-------8-------8---6---|--------6-------6-------6-------|
E-|--------6-------6-------6-------|--------------------------------|
   ^   '   ^   '   ^   '   ^   '    ^   '   ^   '   ^   '   ^   '   |
   1       2       3       4        1       2       3       4       

e-|--------------------------------|--------------------------------|
b-|--------------------------------|--------------------------------|
g-|8-------8-------8-------8-------|------------10------10------8---|
d-|8-------8-------8-------8---5---|----5-------10------10------8---|
a-|6-------6-------6-------6---5---|----5-------8-------8-------6---|
E-|----------------------------3---|----3---------------------------|
   ^   '   ^   '   ^   '   ^   '    ^   '   ^   '   ^   '   ^   '   |
   1       2       3       4        1       2       3       4       

e-|--------------------------------|
b-|--------------------------------|
g-|----8-------7---------------0---|
d-|----8-------7-------8---7---5---|
a-|----6-------5-------8---7---5---|
E-|--------------------6---5---3---|
   ^   '   ^   '   ^   '   ^   '    
   1       2       3       4       


CHORUS - chords - listen for strumming pattern

e-|---|---|---|---|
b-|---|---|---|---|
g-|-0-|-0-|---|-0-|
d-|-5-|-5-|-7-|-x-|
a-|-5-|-6-|-8-|-10|
E-|-3-|-6-|-8-|-8-|


BRIDGE

e-|--------------------------------|--------------------------------|
b-|--------------------------------|--------------------------------|
g-|--------0-----------0-----------|0---0---0---0---0---0---0---0---|
d-|--------5-----------5-----------|5---5---5---5---5---5---5---5---|
a-|--------6-----------6-----------|6---6---6---6---6---6---6---6---|
E-|--------6-----------6-----------|6---6---6---6---6---6---6---6---|
   ^   '   ^   '   ^   '   ^   '    ^   '   ^   '   ^   '   ^   '   |
   1       2       3       4        1       2       3       4       

e-|--------------------------------|--------------------------------|
b-|--------------------------------|--------------------------------|
g-|--------0-----------0-----------|0---0---0---0---0---0---0---0---|
d-|--------10----------10----------|10--10--10--10--10--10--10--10--|
a-|--------10----------10----------|10--10--10--10--10--10--10--10--|
E-|--------8-----------8-----------|8---8---8---8---8---8---8---8---|
   ^   '   ^   '   ^   '   ^   '    ^   '   ^   '   ^   '   ^   '   |
   1       2       3       4        1       2       3       4       

e-|--------------------------------|--------------------------------|
b-|--------------------------------|--------------------------------|
g-|--------0-----------0-----------|0---0---0---0---0---0---0---0---|
d-|--------8-----------8-----------|8---8---8---8---8---8---8---8---|
a-|--------8-----------8-----------|8---8---8---8---8---8---8---8---|
E-|--------6-----------6-----------|6---6---6---6---6---6---6---6---|
   ^   '   ^   '   ^   '   ^   '    ^   '   ^   '   ^   '   ^   '   |
   1       2       3       4        1       2       3       4       

e-|--------------------------------|--------------------------------|
b-|--------------------------------|--------------------------------|
g-|--------0-----------0-----------|0---0---0---0---0---0---0---0---|
d-|--------5-----------5-----------|5---5---5---5---5---5---5---5---|
a-|--------6-----------6-----------|6---6---6---6---6---6---6---6---|
E-|--------6-----------6-----------|6---6---6---6---6---6---6---6---|
   ^   '   ^   '   ^   '   ^   '    ^   '   ^   '   ^   '   ^   '   |
   1       2       3       4        1       2       3       4       

e-|--------------------------------|--------------------------------|
b-|--------------------------------|--------------------------------|
g-|--------0-----------0-----------|0---0---0---0---0---0---0---0---|
d-|--------10----------10----------|10--10--10--10--10--10--10--10--|
a-|--------10----------10----------|10--10--10--10--10--10--10--10--|
E-|--------8-----------8-----------|8---8---8---8---8---8---8---8---|
   ^   '   ^   '   ^   '   ^   '    ^   '   ^   '   ^   '   ^   '   |
   1       2       3       4        1       2       3       4       

e-|--------------------------------|--------------------------------|
b-|--------------------------------|--------------------------------|
g-|--------0-----------0-----------|0---0---0---0---0---0---0---0---|
d-|5-------x-----------x-----------|x---x---x---x---x---x---x---x---|
a-|5-------10----------10----------|10--10--10--10--10--10--10--10--|
E-|3-------------------------------|--------------------------------|
   ^   '   ^   '   ^   '   ^   '    ^   '   ^   '   ^   '   ^   '   |
   1       2       3       4        1       2       3       4       

e-|--------------------------------|--------------------------------|
b-|--------------------------------|--------------------------------|
g-|--------0-----------0-----------|0---0---0---0---0---0---0---0---|
d-|5-------x-----------x-----------|x---x---x---x---x---x---x---x---|
a-|5-------10----------10----------|10--10--10--10--10--10--10--10--|
E-|3-------------------------------|--------------------------------|
   ^   '   ^   '   ^   '   ^   '    ^   '   ^   '   ^   '   ^   '   |
   1       2       3       4        1       2       3       4       


End with VERSE, PRECHORUS, CHORUS





Comments


Popular Heatmiser tabs & chords
Bastard John Chords
Blue Highway Tabs
Bottle Rocket Tabs
Can't Be Touched Tabs
Low-flying Jets Tabs
Nightcap Tabs
Pop In G Tabs
Sands Hotel Tabs
Still Tabs
Why Did I Decide To Stay? Tabs


Song lyrics



↑ Back to top | Tablatures and chords are parodies/interpretations of the original songs. You may use it for private study, scholarship, research or language learning purposes only
© 2014 AZChords.com Contact us | Privacy policy | DMCA | Add/correct tabs | Request tabs | Top 50 tabs