» » »

Heatmiser, Can't Be Touched Tabs (ver.1)

Artists:  A B C D E F G H I J K L M N O P Q R S T U V W X Y Z # 

Can't Be Touched Tabs (ver.1)

Heatmiser Tabs
 Rating:
4/5 (4 votes)
Can't Be Touched lessons Tabs too difficult? Try these video lessons and learn fast
1
                song      : can't be touched
artist    : heatmiser

drop D tuning


INTRO/VERSE

e-|----------------|----------------|----------------|----------------|
b-|----------------|----------------|3-3-3-3-------5-|5-5-5-5-5-5-5-5-|
g-|0-0-0-0-0-0-0---|----------0-0-0-|3-3-3-3-------5-|5-5-5-5-5-5-5-5-|
d-|0-0-0-0-0-0-0-7-|7-7-7-7-7-1-1-1-|3-3-3-3-3-3-3-5-|5-5-5-5-5-5-5-5-|
a-|5-5-5-5-8-8-8-7-|7-7-7-7-7-1-1-1-|1-1-1-1-3-3-3-3-|3-3-3-3-3-3-3-3-|
D-|5-5-5-5-8-8-8-7-|7-7-7-7-7-1-1-1-|--------3-3-3---|----------------|
   ^ ' ^ ' ^ ' ^ ' |^ ' ^ ' ^ ' ^ ' |^ ' ^ ' ^ ' ^ ' |^ ' ^ ' ^ ' ^ ' |
   1   2   3   4    1   2   3   4    1   2   3   4    1   2   3   4    


CHORUS

e-|--------------------------------|--------------------------------|
b-|--------------------------------|--------------------------------|
g-|--------------------------------|--------------------------------|
d-|------------8-----------10--10--|10--10--10--8-------8---8---8---|
a-|8--h10--10------10-/12--12--10--|13--12--10--8-------8---8---9---|
D-|10------10------10--10--10--10--|10--10--10--8-------8---8---8---|
   ^   '   ^   '   ^   '   ^   '   |^   '   ^   '   ^   '   ^   '   |
   1       2       3       4        1       2       3       4       

or maybe this:

e-|----------------|----------------|
b-|----------------|----------------|
g-|------3---------|3---------------|
d-|3h5-5---5h7-7-5-|--7-5-3---3-3-4-|
a-|3---3---3-3-3-3-|--3-3-1---1-1-1-|
D-|----------------|----------------|
   ^ ' ^ ' ^ ' ^ ' |^ ' ^ ' ^ ' ^ ' |
   1   2   3   4    1   2   3   4    


BRIDGE - not too sure about this

e-|--------------------------------|--------------------------------|
b-|--------------------------------|--------------------------------|
g-|--------------------------------|--------------------------------|
d-|5---5---8---5---7---7---7---7--/|10--10--10--10------10--10--10--| x4
a-|5---5---5---5---5---5---5---5--/|10--10--13--12------12--12--12--|
D-|5---5---5---5---5---5---5---5--/|10--10--10--10------10--10--10--|
   ^   '   ^   '   ^   '   ^   '   |^   '   ^   '   ^   '   ^   '   |
   1       2       3       4        1       2       3       4       

e-|----------------|
b-|------5---------|
g-|------5---------|
d-|5-----5---------| x3
a-|5-----3---------|
D-|5---------------|
   ^ ' ^ ' ^ ' ^ ' |
   1   2   3   4   

POST-BRIDGE

   guitar 2          guitar 1
e-|------------|    |------------|
b-|------------|    |------------|
g-|12----12----|    |0--0--0--0--|
d-|x-----x-----| x7 |0--0--0--0--| x7
a-|10----10----|    |5--5--5--5--|
D-|------------|    |5--5--5--5--|
   ^  '  ^  '  |     ^  '  ^  '  |
   1     2           1     2     

   guitar 2 plays this while guitar one plays the first two
   measures of INTRO/VERSE, then both continue INTRO/VERSE
e-|--------------------------------|--------------------------------|
b-|--------------------------------|--------------------------------|
g-|12------12------12------12------|14------14------14\-12--12------|
d-|x-------x-------x-------x-------|x-------x-------x---x---x-------|
a-|10------10------10------10------|12------12------12\-10--10------|
D-|--------------------------------|--------------------------------|
   ^   '   ^   '   ^   '   ^   '   |^   '   ^   '   ^   '   ^   '   |
   1       2       3       4        1       2       3       4       


END ON CHORUS
            
Submit corrections

comments powered by Disqus
↑ Back to top | Heatmiser Tabs for Can't Be Touched. Lyrics for acoustic guitar and electric guitar. 1 Tablatures and chords are parodies/interpretations of the original songs. You may use it for private study, scholarship, research or language learning purposes only