>
 >
Dream Of The Archer

Dream Of The Archer Guitar Tabs

Heart - Dream Of The Archer chords, tabs, tablatures, lyrics

Guitar lessons | Add/correct | Request | Top 50 tabs Artists:  A B C D E F G H I J K L M N O P Q R S T U V W X Y Z 0-9

Dream Of The Archer Guitar Tabs – Heart

CD, Sheet music, Poster

Do you like Dream Of The Archer? Share with your friends now
Tabs
----------------------------------------------------------------------------
                             Dream of the Archer - by Heart
----------------------------------------------------------------------------

This is my interpretation of the Mandolin TAB for this song
Tuning: standard

Figures 1 & 2 are played in tandem, if only one mandolin, then I would play 
Fig. 2 but either one sounds good individually. Just listen to the song and 
get the feel for it.

The song goes in this order:
Fig. 1/2, 1/2, 3, 1/2, 3, 3, 4, 4, 5

  Verses:     Mandolin 1 (fig. 1)
   Am                                  Em Em B5 B5 B5 Am
E|-0-----------------------------------3--3--2--2--2--0-|
A|-0-----------------------------------2--2--2--2--2--0-|
D|-2-----------------------------------2--2--4--4--4--2-|
G|-5-----------------------------------------4--4--4--5-|

  Verses:     Mandolin 2 (fig. 2)
   Am                                  Em Em B5 B5 B5 Am
E|-0---7--8--8----10-8--7----7--8--5---3--3--2--2--2--0-0-1-3-5p3p1p0-----|
A|-0---0--0--0----0--0--0----0--0--0---2--2--2--2--2--0---------------3-0-|
D|-2---10-10-10---10-10-10---10-10-2---2--2--4--4--4--2-------------------|
G|-5---9--9--9----9--9--9----9--9------------4--4--4----------------------|

  Chorus 1:  (fig. 3)
   C
E|-0-------0-1-0-----0-1-0-------0-1-0-----0-1-0----|
A|-3------0-----0-0-0-----0-----0-----0-0-0-----0-0-|
D|-2-----3-------3-0-------0-2-3-------3-0-------0--|
G|-0------------------------------------------------|
  
  Chorus 2:  (fig. 4)
   C
E|-0-------0-1-3-5p3p1p0---------0-1-0-----0-1-0----|
A|-3------0-------------3-0-----0-----0-0-0-----0-0-|
D|-2-----3---------------------3-------3-0-------0--|
G|-0------------------------------------------------|

  Outro:    (fig. 5)
E|---0-1-0-1-3-5p3p1p0-----|
A|--0-----0-0-0-------3-0--|  repeat through fade out
D|-2---------------------0-|
G|-------------------------|


| /  slide up
| \  slide down
| h  hammer-on
| p  pull-off
| ~  vibrato
| +  harmonic
| x  Mute note
============================================================================





Comments


Popular Heart tabs & chords
Kick It Out 2 Bass Tabs
Dog And Butterfly Chords
I Didn't Want To Need You Chords
Perfect Goodbye 1 Chords
Barracuda 2 Tabs
How Can I Refuse Tabs
Vainglorious Tabs
I Didnt Want To Need You Ukulele
In Walks The Night Ukulele
Magic Man Ukulele


Song lyrics



↑ Back to top | Tablatures and chords are parodies/interpretations of the original songs. You may use it for private study, scholarship, research or language learning purposes only
© 2014 AZChords.com Contact us | Privacy policy | DMCA | Add/correct tabs | Request tabs | Top 50 tabs