>
 >
Tweeter And The Monkeyman 1

Tweeter And The Monkeyman 1 Guitar Tabs

Headstones - Tweeter And The Monkeyman 1 chords, tabs, tablatures, lyrics

Guitar lessons | Add/correct | Request | Top 50 tabs Artists:  A B C D E F G H I J K L M N O P Q R S T U V W X Y Z 0-9

Tweeter And The Monkeyman 1 Guitar Tabs – Headstones

CD, Sheet music, Poster

Do you like Tweeter And The Monkeyman 1? Share with your friends now
Bass TabsBass Tabs v2ChordsTabsTabs v2Tabs v3Tabs v4
----------------------------------------------------------------------------
                    Headstones - Tweeter and the Monkeyman
----------------------------------------------------------------------------

My interpretation of this cover by the Headstones....Really easy and fun to rock out to!

Tuning: Standard (EBGDAE)

Intro:(Clean)  Just listen for the rythym, its not too complex
   E       D     A       E
E----------2-----------------|
B--0-------3-----2-------0---|
G--1-------2-----2-------1---|
D--2-------0-----2-------2---|
A--2-------X-----0-------2---|
E--0---------------------0---|

Verse: (Dist.) Same rythym as the intro
   E      D      A       E
E-------------------------------|
B-------------------------------|
G---------7--------------9------|
D--2------7------7-------9------|
A--2------5------7-------7------|
E--0-------------5-------0------|

Chorus: (Dist)

   E                    D                   A
E------------------------------------------------------------|
B------------------------------------------------------------|
G--9-9-xxx-9--x9-9------7-7--xxx-7--x7-7---------------------|
D--9-9-xxx-9--x9-9------7-7--xxx-7--x7-7----7-7-xxx-7--x7-7--|
A--7-7-xxx-7--x7-7------5-5--xxx-5--x5-5----7-7-xxx-7--x7-7--|
E-------------------------------------------5-5-xxx-5--x5-5--|

   E                          E                        *Pick slide
E------------------------------------------------------------------|
B------------------------------------------------------------------|
G------------------------------------------------------------------|
D-2-2--xxx-2--x2-2---/////////9-99999999999999999999---------------|
A-2-2--xxx-2--x2-2---/////////7-77777777777777777777---x(12)\\\\\\-|
E-0-0--xxx-0--x0-0------------0-00000000000000000000---x(12)\\\\\\-|
                                ====================

Verse: (Dist.) Same as first time just palm muted

Chorus: (Dist.) Same

Post Chorus Riff: (Dist)
                   E
E------------------------------------------------------------------|
B------8~----------------------------------------------------------|
G----7----9-7-9~---------------------------------------------------|
D-/9---------------7h9-999999999999999999999999999-----------------|
A------------------7---777777777777777777777777777---x(12)\\\\\\\--|
E------------------0---000000000000000000000000000---x(12)\\\\\\\--|
                       ===========================

Verse: (Dist.) Same again

Chorus: (Dist.) Also the same again

Post Chorus Riff (or Solo?)
  E               A      G     E               A      G
E----------------------------------------------------------|
B------8~---------------------------8~---------------------|
G----7----9-7-9~------------------7----9-7-9~--------------|
D-/9--------------7-7-7--5~----/9--------------7-7-7--5~---|
A-----------------7-7-7--5~--------------------7-7-7--5~---|
E-----------------5-5-5--3~--------------------5-5-5--3~---|

   E                          A      G     E              A      G
E--------------------------------------------------------------------|
B---------10^(11)^10p8---8~---------------------8~-------------------|
G-----7-9--------------9----------------------7----9-7-9-------------|
D--/9-------------------------7-7-7--5~----/9-------------7-7-7--5~--|
A-----------------------------7-7-7--5~-------------------7-7-7--5~--|
E-----------------------------5-5-5--3~-------------------5-5-5--3~--|

     E
E---------------------------------------------|
B---------------------------------------------|
G---------------------------------------------|
D-xx-9--9999999999999999999999----------------|
A-xx-7--7777777777777777777777---x(12)\\\\\\\-|
E-xx-0--0000000000000000000000---x(12)\\\\\\\-|

Verse: (Once again...the same)

Chorus: (Same.....suprised?)

Post chorus solo:
  E               A      G     E               A      G
E----------------------------------------------------------|
B------8~---------------------------8~---------------------|
G----7----9-7-9~------------------7----9-7-9~--------------|
D-/9--------------7-7-7--5~----/9--------------7-7-7--5~---|
A-----------------7-7-7--5~--------------------7-7-7--5~---|
E-----------------5-5-5--3~--------------------5-5-5--3~---|

   E                          A      G     E              A      G
E--------------------------------------------------------------------|
B---------10^(11)^10p8---8~---------------------8~-------------------|
G-----7-9--------------9----------------------7----9-7-9-------------|
D--/9-------------------------7-7-7--5~----/9-------------7-7-7--5~--|
A-----------------------------7-7-7--5~-------------------7-7-7--5~--|
E-----------------------------5-5-5--3~-------------------5-5-5--3~--|

| /  slide up
| \  slide down
| h  hammer-on
| p  pull-off
| ~  vibrato
| +  harmonic
| x  Mute note

Thats all....Great song for a beginning band.

============================================================================





Comments


Popular Headstones tabs & chords
Judy Bass Tabs
Tweeter And The Monkeyman Bass Tabs
Long Way To Never Land Chords
Comgratulations (Intro) Tabs
Do That Thing Tabs
Tiny Teddy Tabs
Tweeter And The Monkeyman 2 Tabs
Tweeter And The Monkeyman 3 Tabs
Who The Hell Do You Think You Are Tabs
Cubically Contained Ukulele


Song lyrics



↑ Back to top | Tablatures and chords are parodies/interpretations of the original songs. You may use it for private study, scholarship, research or language learning purposes only
© 2014 AZChords.com Contact us | Privacy policy | DMCA | Add/correct tabs | Request tabs | Top 50 tabs