» » »

Headstones, Tweeter And The Monkey Man Bass tabs (ver.1)

Artists:  A B C D E F G H I J K L M N O P Q R S T U V W X Y Z # 

Tweeter And The Monkey Man Bass tabs (ver.1)

Headstones Tabs
 Rating:
4/5 (4 votes)
Tweeter And The Monkey Man lessons Tabs too difficult? Try these video lessons and learn fast
                INTRO

G|----------------|----------------|----------------|----------------|
D|----------------|----------------|----------------|----------------|
A|----------------|----------------|----------------|----------------|
E|----REST--------|----REST--------|----REST--------|----REST--------|


G|----------------|----------------|
D|----------------|----------------|
A|----------------|----------------|
E|----REST--------|----REST--------|

VERSE 1 - (X4)

  E                D                A                E
G|----------------|----------------|----------------|----------------|
D|----------------|----------------|----------------|----------------|
A|7-7-7-7-7-7-7-7-|5-5-5-5-5-5-5-5-|----------------|7-7-7-7-7-7-7-7-|
E|----------------|----------------|5-5-5-5-5-5-5-5-|----------------|

CHORUS 1

  E                                 D
G|----------------|----------------|----------------|----------------|
D|----------------|----------------|----------------|----------------|
A|7-7-7-7-7-7-7---|----------------|5-5-5-5-5-5-5-5-|5-5-5-5-5-5-5-5-|
E|--------------0-|0-0-0-0-0-0-0-0-|----------------|----------------|

  A                E
G|----------------|----------------|----------------|----------------|
D|----------------|----------------|----------------|----------------|
A|----------------|7-7-7-7-7-7-7-7-|7-7-7-7-7-7-7-7-|7-7-7-7-7-7-7-7-|
E|5-5-5-5-5-5-5-5-|----------------|----------------|----------------|


G|----------------|----------------|
D|----------------|----------------|
A|7-7-7-7-7-7-7-7-|7-7-7-7-7-7-7-7-|
E|----------------|----------------|

VERSE 1 - (X4)

CHORUS 2

  E                                 D
G|----------------|----------------|----------------|----------------|
D|----------------|----------------|----------------|----------------|
A|7-7-7-7-7-7-7---|----------------|5-5-5-5-5-5-5-5-|5-5-5-5-5-5-5-5-|
E|--------------0-|0-0-0-0-0-0-0-0-|----------------|----------------|

  A                E           A B  D   B A B        E
G|----------------|----------------|----------------|----------------|
D|----------------|----------------|----------------|----------------|
A|----------------|7-7-7-7-7-7-----|5---------------|7-7-7-7-7-7-7-7-|
E|5-5-5-5-5-5-5-5-|------------5-7-|----7-5-7-------|----------------|


G|----------------|----------------|
D|----------------|----------------|
A|7-7-7-7-7-7-7-7-|7-7-7-7-7-7-7-7-|
E|----------------|----------------|

VERSE 1 - (X4)

CHORUS 3

  E                                 D
G|----------------|----------------|----------------|----------------|
D|----------------|----------------|----------------|----------------|
A|7-7-7-7-7-7-7---|----------------|5-5-5-5-5-5-5-5-|5-5-5-5-5-5-5-5-|
E|--------------0-|0-0-0-0-0-0-0-0-|----------------|----------------|

  A                E           A B  D   B A B        E E   D     A B
G|----------------|----------------|----------------|----------------|
D|----------------|----------------|----------------|----------------|
A|----------------|7-7-7-7-7-7-----|5---------------|7-7---5---------|
E|5-5-5-5-5-5-5-5-|------------5-7-|----7-5-7-------|------------5-7-|

  D   B A B        E E   D     A B  D   B A B        E E   D     A B
G|----------------|----------------|----------------|----------------|
D|----------------|----------------|----------------|----------------|
A|5---------------|7-7---5---------|5---------------|7-7---5---------|
E|----7-5-7-------|------------5-7-|----7-5-7-------|------------5-7-|

  D   B A B        E E   D     A B  E
G|----------------|----------------|----------------|----------------|
D|----------------|----------------|----------------|----------------|
A|5---------------|7-7---5---------|7-7-7-7-7-7-7-7-|7-7-7-7-7-7-7-7-|
E|----7-5-7-------|----------------|----------------|----------------|


G|----------------|----------------|
D|----------------|----------------|
A|7-7-7-7-7-7-7-7-|7-7-7-7-7-7-7-7-|
E|----------------|----------------|

VERSE 1 - (X4)

CHORUS 4

  E                                 D
G|----------------|----------------|----------------|----------------|
D|----------------|----------------|----------------|----------------|
A|7-7-7-7-7-7-7---|----------------|5-5-5-5-5-5-5-5-|5-5-5-5-5-5-5-5-|
E|--------------0-|0-0-0-0-0-0-0-0-|----------------|----------------|

  A                E           A B  D   B A B        E E   D     A B
G|----------------|----------------|----------------|----------------|
D|----------------|----------------|----------------|----------------|
A|----------------|7-7-7-7-7-7-----|5---------------|7-7---5---------|
E|5-5-5-5-5-5-5-5-|------------5-7-|----7-5-7-------|------------5-7-|

  D   B A B        E E   D     A B  D   B A B        E E   D     A B
G|----------------|----------------|----------------|----------------|
D|----------------|----------------|----------------|----------------|
A|5---------------|7-7---5---------|5---------------|7-7---5---------|
E|----7-5-7-------|------------5-7-|----7-5-7-------|------------5-7-|

  D   B A B        E E   D
G|----------------|----------------|
D|----------------|----------------|
A|5---------------|7-7---5---------|
E|----7-5-7-------|----------------|
            
Submit corrections

comments powered by Disqus
↑ Back to top | Headstones Bass for Tweeter And The Monkey Man. Lyrics for acoustic guitar and electric guitar. Tablatures and chords are parodies/interpretations of the original songs. You may use it for private study, scholarship, research or language learning purposes only