» » »

Headstones, Reno Chords (ver.1)

Artists:  A B C D E F G H I J K L M N O P Q R S T U V W X Y Z # 

Reno Chords (ver.1)

Headstones Tabs
 Rating:
4/5 (4 votes)
Reno lessons Tabs too difficult? Try these video lessons and learn fast
                Reno by the Headstones

This is the tab for the rockin' opening track to "Smile and Wave", the
Headstones third effort.  Great song from a great CD.  This tab is not 
perfect, but it helps.  Please direct comments to Bryan at

[Opening/Main Riff 1A]
E :-----------------------|
B :-----------------------|
G :--------------------2--|
D :2-4-4-4-4-2-4-2-4-2-2-4|
A :2-4-4-4-4-2-4-2-4-2-0-4|
E :0-2-2-2-2-0-2-0-2-0---2|

[Riff 1B]
E :-----------------------|
B :-----------------------|
G :-----------------------|
D :2-4-4-4-4-2-4-2-4-2-5-5|
A :2-4-4-4-4-2-4-2-4-2-5-5|
E :0-2-2-2-2-0-2-0-2-0-3-3|

[Riff 2A - Bass line]      [Riff 2B - Bass line]
E :-----------------------|-----------------------|
B :-----------------------|-----------------------|
G :-----------------------|-----------------------|
D :-----------------------|-----------------------|
A :--------------------0--|-----------------------|
E :0-2-2-2-2-0-2-0-2-0---2|0-2-2-2-2-0-2-0-2-0-3-3|

[Riff 3 - "Well I'm going down to Reno..."]
E :------------------------|-------------------------|
B :------------------------|-------------------------|
G :6-6-6-6-6-6-6-6-6-4-2-2-|4-4-4-4-4-4-4-4-4-2-2-4-6|
D :6-6-6-6-6-6-6-6-6-4-2-2-|4-4-4-4-4-4-4-4-4-2-2-4-6|
A :4-4-4-4-4-4-4-4-4-2-0-0-|2-2-2-2-2-2-2-2-2-0-0-2-4|
E :------------------------|-------------------------|
			   |
           End this riff in between the two bars



[Riff 4 - Chorus]
E :-----------------------|--------------------|
B :-----------------------|--------------------|
G :7-7-7-5-5-3-5-5-5-3-3-3|-9-9-7-7-9-9-9-7-7-9|
D :7-7-7-5-5-3-5-5-5-3-3-3|-9-9-7-7-9-9-9-7-7-9|
A :5-5-5-3-3-1-3-3-3-1-1-1|-7-7-5-5-7-7-7-5-5-7|
E :-----------------------|--------------------|


[riff 5 - the end]
E :-------------------------------|-------------------------------|
B :-------------------------------|-------------------------------|
G :5-5-5-5-5-5-5-5----------------|7-7-7-7-7-7-7-7----------------|
D :5-5-5-5-5-5-5-5-5-5-5-5-5-5-5-5|7-7-7-7-7-7-7-7-7-7-7-7-7-7-7-7|
A :3-3-3-3-3-3-3-3-5-5-5-5-5-5-5-5|5-5-5-5-5-5-5-5-7-7-7-7-7-7-7-7|
E :----------------3-3-3-3-3-3-3-3|----------------5-5-5-5-5-5-5-5|

E :-------------------------------|
B :-------------------------------|
G :5-5-5-5-5-5-5-5-5-5-5-5-5-5-5-5|
D :5-5-5-5-5-5-5-5-5-5-5-5-5-5-5-5|
A :3-3-3-3-3-3-3-3-3-3-3-3-3-3-3-3|
E :-------------------------------|

Putting it together
*******************

INTRO
Riff 1A x 3
Riff 1B x 1

VERSE
Riff 2A x 4

Riff 1A x 1
Riff 1B x 1

VERSE
Riff 2A x 3
Riff 2B x 1

CHORUS "Well I'm going down like that"
Riff 4 x 3
Riff 1A x 3
Riff 1B x 1

VERSE
Riff 2A x 3
Riff 2B x 1

CHORUS
Riff 4 x 3
Riff 1A x 3
RIff 1B x 1

VERSE
Riff 2A x 3
Riff 2B x 1

INTERLUDE "Well I'm going down to Reno..."
Riff 3 x 2.5

VERSE
Riff 2A x 3
Riff 2B x 1

Chorus
Riff 4 x 3

END
Riff 5 x 1
Riff 1A x 3
Riff 1B x 1
            
Submit corrections

comments powered by Disqus
↑ Back to top | Headstones Chords for Reno. Lyrics for acoustic guitar and electric guitar. Tablatures and chords are parodies/interpretations of the original songs. You may use it for private study, scholarship, research or language learning purposes only