» » »

Headstones, Losing Control Bass tabs (ver.1)

Artists:  A B C D E F G H I J K L M N O P Q R S T U V W X Y Z # 

Losing Control Bass tabs (ver.1)

Headstones Tabs
 Rating:
4/5 (4 votes)
Losing Control lessons Tabs too difficult? Try these video lessons and learn fast
1
                Intro
G-----------------|-----------------|-----------------|-----------------|
D-----------------|-----------------|-----------------|-----------------|
A-----7-7---------|-----7-7---------|-----7-7---------|-----7-7---------|
E-0-0-----3-2-3-2-|-0-0-----3-2-3-2-|-0-0-----3-2-3-2-|-0-0-----6-6-6-6-|

G-----------------|-----------------|-----------------|-----------------|
D-----------------|-----------------|-----------------|-----------------|
A-----7-7---------|-----7-7---------|-----7-7---------|-----7-7---------|
E-0-0-----3-2-3-2-|-0-0-----3-2-3-2-|-0-0-----3-2-3-2-|-0-0-----6-6-6-6-|

G-----------------|-----------------|-----------------|-----------------|
D-----------------|-----------------|-----------------|-----------------|
A-----7-7---------|-----7-7---------|-----7-7---------|-----7-7---------|
E-0-0-----3-2-3-2-|-0-0-----3-2-3-2-|-0-0-----3-2-3-2-|-0-0-----6-6-6-6-|

Verse
G-----------------|-----------------|-----------------|-----------------|
D-----------------|-----------------|-----------------|-----------------|
A-----7-7---------|-----7-7---------|-----7-7---------|-----7-7---------|
E-0-0-----3-2-3-2-|-0-0-----3-2-3-2-|-0-0-----3-2-3-2-|-0-0-----3-2-3-2-|

G-----------------|-----------------|-----------------|-----------------|
D-----------------|-----------------|-----------------|-----------------|
A-----7-7---------|-----7-7---------|-----7-7---------|-----7-7---------|
E-0-0-----3-2-3-2-|-0-0-----3-2-3-2-|-0-0-----3-2-3-2-|-0-0-----6-6-6-6-|

Chorus                          x3
G---------------------------------|---------------------------------|
D---------------------------------|---------------------------------|
A-2-2-2-2-2-2-2-2-5-5-5-5-5-5-5-5-|-2-2-2-2-2-2-2-2-----------------|
E---------------------------------|---------------------------------|

G-----------------|-----------------|-----------------|-----------------|
D-----------------|-----------------|-----------------|-----------------|
A-----7-7---------|-----7-7---------|-----7-7---------|-----7-7---------|
E-0-0-----3-2-3-2-|-0-0-----3-2-3-2-|-0-0-----3-2-3-2-|-0-0-----6-6-6-6-|

Verse
G-----------------|-----------------|-----------------|-----------------|
D-----------------|-----------------|-----------------|-----------------|
A-----7-7---------|-----7-7---------|-----7-7---------|-----7-7---------|
E-0-0-----3-2-3-2-|-0-0-----3-2-3-2-|-0-0-----3-2-3-2-|-0-0-----3-2-3-2-|

G-----------------|-----------------|-----------------|-----------------|
D-----------------|-----------------|-----------------|-----------------|
A-----7-7---------|-----7-7---------|-----7-7---------|-----7-7---------|
E-0-0-----3-2-3-2-|-0-0-----3-2-3-2-|-0-0-----3-2-3-2-|-0-0-----6-6-6-6-|

Chorus                          x3
G---------------------------------|---------------------------------|
D---------------------------------|---------------------------------|
A-2-2-2-2-2-2-2-2-5-5-5-5-5-5-5-5-|-2-2-2-2-2-2-2-2-----------------|
E---------------------------------|---------------------------------|

Solo
G-----------------|-----------------|-----------------|-----------------|
D-----------------|-----------------|-----------------|-----------------|
A-----7-7---------|-----7-7---------|-----7-7---------|-----7-7---------|
E-0-0-----3-2-3-2-|-0-0-----3-2-3-2-|-0-0-----3-2-3-2-|-0-0-----6-6-6-6-|

G-----------------|-----------------|-----------------|-----------------|
D-----------------|-----------------|-----------------|-----------------|
A-----7-7---------|-----7-7---------|-----7-7---------|-----7-7---------|
E-0-0-----3-2-3-2-|-0-0-----3-2-3-2-|-0-0-----3-2-3-2-|-0-0-----6-6-6-6-|

G-----------------|-----------------|-----------------|-----------------|
D-----------------|-----------------|-----------------|-----------------|
A-----7-7---------|-----7-7---------|-----7-7---------|-----7-7---------|
E-0-0-----3-2-3-2-|-0-0-----3-2-3-2-|-0-0-----3-2-3-2-|-0-0-----6-6-6-6-|

G-----------------|-----------------|-----------------|-----------------|
D---------8--8--8-|-----------------|---------8--8--8-|-----------------|
A-----------------|-----------------|-----------------|-----------------|
E-0-0-0-0---------|-0-0-0-0-6--6--6-|-0-0-0-0---------|-0-0-0-0-6--6--6-|

G---------------------------------|---------------------------------|
D---------------------------------|---------------------------------|
A-2-2-2-2-2-2-2-2-5-5-5-5-5-5-5-5-|-2-2-2-2-2-2-2-2-5-5-5-5-5-5-5-5-|
E---------------------------------|---------------------------------|

G---------------------------------|---------------------------------|
D---------------------------------|---------------------------------|
A-2-2-2-2-2-2-2-2-5-5-5-5-5-5-5-5-|-2-2-2-2-2-2-2-2-5-5-5-5-5-5-5-5-|
E---------------------------------|---------------------------------|

Verse
G-----------------|-----------------|-----------------|-----------------|
D-----------------|-----------------|-----------------|-----------------|
A-----7-7---------|-----7-7---------|-----7-7---------|-----7-7---------|
E-0-0-----3-2-3-2-|-0-0-----3-2-3-2-|-0-0-----3-2-3-2-|-0-0-----3-2-3-2-|

G-----------------|-----------------|-----------------|-----------------|
D-----------------|-----------------|-----------------|-----------------|
A-----7-7---------|-----7-7---------|-----7-7---------|-----7-7---------|
E-0-0-----3-2-3-2-|-0-0-----3-2-3-2-|-0-0-----3-2-3-2-|-0-0-----6-6-6-6-|

Chorus                          x3
G---------------------------------|---------------------------------|
D---------------------------------|---------------------------------|
A-2-2-2-2-2-2-2-2-5-5-5-5-5-5-5-5-|-2-2-2-2-2-2-2-2-----------------|
E---------------------------------|---------------------------------|

G-----------------|-----------------|-----------------|-----------------|
D---------8--8--8-|-----------------|---------8--8--8-|-----------------|
A-----------------|-----------------|-----------------|-----------------|
E-0-0-0-0---------|-0-0-0-0-6--6--6-|-0-0-0-0---------|-0-0-0-0-6--6--6-|


great song, not too hard to play
            
Submit corrections

comments powered by Disqus
↑ Back to top | Headstones Bass for Losing Control. Lyrics for acoustic guitar and electric guitar. 1 Tablatures and chords are parodies/interpretations of the original songs. You may use it for private study, scholarship, research or language learning purposes only