» » »

Headstones, Look Away Tabs (ver.1)

Artists:  A B C D E F G H I J K L M N O P Q R S T U V W X Y Z # 

Look Away Tabs (ver.1)

Headstones Tabs
 Rating:
4/5 (4 votes)
Look Away lessons Tabs too difficult? Try these video lessons and learn fast
                Intro                         x4
E-------------------------------|
B-------------------------------|
G---------------7-7-7-7---------|
D-7--7-7-2--2-2-7-7-7-7-7-7-7-7-|
A-7--7-7-2--2-2-5-5-5-5-7-7-7-7-|
E-5--5-5-0--0-0---------5-5-5-5-|

Verse                         x8
E-------------------------------|
B-------------------------------|
G---------------7-7-7-7---------|
D-7--7-7-2--2-2-7-7-7-7-7-7-7-7-|
A-7--7-7-2--2-2-5-5-5-5-7-7-7-7-|
E-5--5-5-0--0-0---------5-5-5-5-|

Pre-Chorus
E---------------------------------|
B---------------------------------|
G-5-5-5-5-5-5-5-5-9-9-9-9-9-9-9-9-|
D-5-5-5-5-5-5-5-5-9-9-9-9-9-9-9-9-|
A-3-3-3-3-3-3-3-3-7-7-7-7-7-7-7-7-|
E---------------------------------|

Chorus                         x3                     
E-------------------------------|
B-------------------------------|
G---------------7-7-7-7---------|
D-7--7-7-2--2-2-7-7-7-7-7-7-7-7-|
A-7--7-7-2--2-2-5-5-5-5-7-7-7-7-|
E-5--5-5-0--0-0---------5-5-5-5-|

Verse                          x4
E-------------------------------|
B-------------------------------|
G---------------7-7-7-7---------|
D-7--7-7-2--2-2-7-7-7-7-7-7-7-7-|
A-7--7-7-2--2-2-5-5-5-5-7-7-7-7-|
E-5--5-5-0--0-0---------5-5-5-5-|

Pre-Chorus
E---------------------------------|
B---------------------------------|
G-5-5-5-5-5-5-5-5-9-9-9-9-9-9-9-9-|
D-5-5-5-5-5-5-5-5-9-9-9-9-9-9-9-9-|
A-3-3-3-3-3-3-3-3-7-7-7-7-7-7-7-7-|
E---------------------------------|

Chorus                         x3                
E-------------------------------|
B-------------------------------|
G---------------7-7-7-7---------|
D-7--7-7-2--2-2-7-7-7-7-7-7-7-7-|
A-7--7-7-2--2-2-5-5-5-5-7-7-7-7-|
E-5--5-5-0--0-0---------5-5-5-5-|

Bridge              x8
E--------------------|
B--------------------|
G----------------9-9-|
D-7-x7-7-9-x9-9--9-9-|
A-7-x7-7-9-x9-9--7-7-|
E-5-x5-5-7-x7-7------|

Verse                          x4
E-------------------------------|
B-------------------------------|
G---------------7-7-7-7---------|
D-7--7-7-2--2-2-7-7-7-7-7-7-7-7-|
A-7--7-7-2--2-2-5-5-5-5-7-7-7-7-|
E-5--5-5-0--0-0---------5-5-5-5-|

Outro Till end
E-------------------------------|
B-------------------------------|
G---------------7-7-7-7---------|
D-7--7-7-2--2-2-7-7-7-7-7-7-7-7-|
A-7--7-7-2--2-2-5-5-5-5-7-7-7-7-|
E-5--5-5-0--0-0---------5-5-5-5-|
            
Submit corrections

comments powered by Disqus
↑ Back to top | Headstones Tabs for Look Away. Lyrics for acoustic guitar and electric guitar. Tablatures and chords are parodies/interpretations of the original songs. You may use it for private study, scholarship, research or language learning purposes only