» » »

Headstones, Look Away Bass tabs (ver.1)

Artists:  A B C D E F G H I J K L M N O P Q R S T U V W X Y Z # 

Look Away Bass tabs (ver.1)

Headstones Tabs
Rating:
0/5 (0 votes)
Look Away lessons Tabs too difficult? Try these video lessons and learn fast
                Intro x2
G---------------------------------|
D---------------------------------|
A-----------------5-5-5-5---------|
E-5-5-5-5-0-0-0-0---------5-5-5-5-|

Verse x8
G---------------------------------|
D---------------------------------|
A-----------------5-5-5-5---------|
E-5-5-5-5-0-0-0-0---------5-5-5-5-|

Pre-Chorus
G---------------------------------|
D---------------------------------|
A-3-3-3-3-3-3-3-3-7-7-7-7-7-7-7-7-|
E---------------------------------|

Chorus x3
G---------------------------------|
D---------------------------------|
A-----------------5-5-5-5---------|
E-5-5-5-5-0-0-0-0---------5-5-5-5-|

Verse x4
G---------------------------------|
D---------------------------------|
A-----------------5-5-5-5---------|
E-5-5-5-5-0-0-0-0---------5-5-5-5-|

Pre-Chorus
G---------------------------------|
D---------------------------------|
A-3-3-3-3-3-3-3-3-7-7-7-7-7-7-7-7-|
E---------------------------------|

Chorus x3
G---------------------------------|
D---------------------------------|
A-----------------5-5-5-5---------|
E-5-5-5-5-0-0-0-0---------5-5-5-5-|

Bridge x8
G---------------------------|
D---------------------------|
A------------------7(hold)--|
E-5-5-5-5-5--7-7-7----------|

Verse x4
G---------------------------------|
D---------------------------------|
A-----------------5-5-5-5---------|
E-5-5-5-5-0-0-0-0---------5-5-5-5-|

Outro till end
G---------------------------------|
D---------------------------------|
A-----------------5-5-5-5---------|
E-5-5-5-5-0-0-0-0---------5-5-5-5-|
            

comments powered by Disqus
↑ Back to top | Headstones Bass for Look Away. Lyrics for acoustic guitar and electric guitar. Tablatures and chords are parodies/interpretations of the original songs. You may use it for private study, scholarship, research or language learning purposes only