» » »

Headstones, Judy Bass tabs (ver.1)

Artists:  A B C D E F G H I J K L M N O P Q R S T U V W X Y Z # 

Judy Bass tabs (ver.1)

Headstones Tabs
Rating:
0/5 (0 votes)
Hard to play? Try these video lessons and learn fast.
                Main riff 
G-----------------:-----------------:
D-----------------:-----------------:
A-0---------------:-------5---5-5-5-:
E-------0---0-0-0-:-3---------------:

chorus riff
G-----------------:-----------------:-----------------:-----------------:
D-----------------:-----------------:-----------------------------------:
A-1---------------:-------5---5-5-5-:-1---------------------------------:
E-------1---1-1-1-:-3---------------:-------1---1-1-1-:-0-0-0-0-3-3-3-3-:
                                   3x
bridge riff
G-----------------:-----------------:
D-----------------:-----------------:
A-1-1-------------:-4-4-----6-6-----:
E-----------------:-----------------:
            

comments powered by Disqus
↑ Back to top | Headstones Bass for Judy. Lyrics for acoustic guitar and electric guitar. Tablatures and chords are parodies/interpretations of the original songs. You may use it for private study, scholarship, research or language learning purposes only