» » »

Headstones, Cubically Contained Bass tabs (ver.1)

Artists:  A B C D E F G H I J K L M N O P Q R S T U V W X Y Z # 

Cubically Contained Bass tabs (ver.1)

Headstones Tabs
Rating:
5/5 (1 vote)
Cubically Contained lessons Tabs too difficult? Try these video lessons and learn fast
                Verse (0:10) x2
G|------------------------|
D|------------------------|
A|--6~----8~----------6~--|
E|--------------4~--------|

Chorus (0:48)
G|--------------------------|
D|--------------------------|
A|--------------------------|
E|--4~--6~--4~--6~--4~--6~--|

(1:03)
G|----------|
D|----------|
A|--6~--6~--|
E|----------|

Verse (1:08)

2nd Chorus (1:45)
G|----------------------------------------------------------|
D|----------------------------------------------------------|
A|----------------------------------------------------------|
E|--1-2-3-44444444--66666666--44444444--66666666--44444444--|

Bridge (1:58) 3x
G|------------------------------------------|
D|------------------------------------------|
A|--66666666--44444444--22222222--66666666--|
E|------------------------------------------|

(2:27)
G|----------------------------|
D|----------------------------|
A|--6~~~------8~----------6~--|
E|------------------4~--------|

Verse (2:51)
Silent (3:11-3:24)

(3:25)
G|----------------|
D|----------------|
A|--666666666666--|
E|----------------|

2nd Chorus (3:29)
Bridge (3:42) 3x

Ending
G|-------------------------|
D|-------------------------|
A|--66666666666666666--6~--|
E|-------------------------|
            

comments powered by Disqus
↑ Back to top | Headstones Bass for Cubically Contained. Lyrics for acoustic guitar and electric guitar. Tablatures and chords are parodies/interpretations of the original songs. You may use it for private study, scholarship, research or language learning purposes only