>
 >
Cemetery 1

Cemetery 1 Guitar Tabs

Headstones - Cemetery 1 chords, tabs, tablatures, lyrics

Guitar lessons | Add/correct | Request | Top 50 tabs Artists:  A B C D E F G H I J K L M N O P Q R S T U V W X Y Z 0-9

Cemetery 1 Guitar Tabs – Headstones

CD, Sheet music, Poster

Do you like Cemetery 1? Share with your friends now
TabsTabs v2
Standard Tuning


Intro
|------------------<5>~~~~~--| <--natural harmonic/
|------------------<5>~~~~~--|    dive w/ bar
|----------7~~~~~------------|
|--2~~~~~--7~~~~~------------|
|--2~~~~~--5~~~~~------------|
|--0~~~~~--------------------|


All Verses
|--------------------------------------|
|--------------------------------------|
|--------------------------------------| repeat as necessary
|--------------------------------------|
|--------------------------------------|
|--0-0-3-0--0-0-3-0--0-0-3-0--0-0-3-0--|
 PM..................................


1st verse fills
|---0-0-0-0-0-0-0-0-0-0-0-0---------| (0:17)
|--/5-5-5-5-5-5-5-5-5-3-2-0---------|
|---------------------------2-0-----|
|------------------------------2-0--|
|-----------------------------------|
|-----------------------------------|

|---0-0-0-0-----------------------------------| (0:22)
|--/5-5-5-5/8-8-8-8/10-10/12-12/13-13/15-15\--|
|----------/7-7-7-7/-9--9/11-11/12-12/14-14\--|
|---------------------------------------------|
|---------------------------------------------|
|---------------------------------------------|

|---0-0-0-0-0-0-0-0-0-0-0-0---------| (0:27)
|--/5-5-5-5-5-5-5-5-5-3-2-0---------|
|---------------------------2-0-----|
|------------------------------2-0--|
|-----------------------------------|
|-----------------------------------|

|----------| (0:32)
|--15b~~\--|
|----------|
|----------|
|----------|
|----------|

|---0-0-0-----| (0:34)
|--/5-5-5~~~--|
|-------------|
|-------------|
|-------------|
|-------------|


Choruses
|------------------------------------------------------------------------|
|------------------------------------------------------------------------|
|-------------------9-9-9-9-9-9-9-9--7-7-7-7-7-7-7-7--6/7-7--6/7-7--6/7--|
|--7-7-7-7-7-7-7-7--9-9-9-9-9-9-9-9--7-7-7-7-7-7-7-7--6/7-7--6/7-7--6/7--|
|--7-7-7-7-7-7-7-7--7-7-7-7-7-7-7-7--5-5-5-5-5-5-5-5--4/5-5--4/5-5--4/5--|
|--5-5-5-5-5-5-5-5-------------------------------------------------------|
Play 4x


2nd Verse Fills
|---0-0-0-0-0-0-0-0-0-0-0-0---------| (1:02)
|--/5-5-5-5-5-5-5-5-5-3-2-0---------|
|---------------------------2-0-----|
|------------------------------2-0--|
|-----------------------------------|
|-----------------------------------|

|-----------------------------| (1:07)
|-----10--9--8--7--6--5~~~~~--|
|--/9---8--7--6--5--4---------|
|-----------------------------|
|-----------------------------|
|-----------------------------|


Solo
|-----------------------|---------------------------|
|-----------------------|---------------------------|
|-----------------------|---------------------------|
|--/5-5-5-4--4----------|--/-7-7-7-5-4-5-4-----4-4--|
|-----------7--5-5-7-7--|------------------7-7------|
|-----------------------|---------------------------|

|--------------------------|----------------------------------|
|--------------------------|----------------------------------|
|--------------------------|-------------------------7-7-9-9--|
|--/9-9-9-7-5-7-5-4-4-5-5--|------------------7-7-9-9---------|
|--------------------------|-----------7-7-9-9----------------|
|--------------------------|--7-7-10-10-----------------------|

|----------------------------------------------------------------
|------10--------------------------------------------------------
|--9b~~--9r--7~~~~~------7-7~~~~~--------7-9~~~--9b-9br-7-7~~~---
|--------------------7h9--------------7-9------------------------
|----------------------------------7-9---------------------------
|----------------------------------------------------------------

|-----------------------------------
|--10p8-10p8-10p8-10p8-10p8-8-8~~~--
|-----------------------------------
|-----------------------------------
|-----------------------------------
|-----------------------------------

|--10-10-10-10-10-10-10-10--10-10-10-10-10-10-10-10--
|--10b10b10b10b10b10b10b10b-10-10-10-10-10-10-10-10--
|----------------------------------------------------
|----------------------------------------------------
|----------------------------------------------------
|----------------------------------------------------

|--10-10-10-10-10-10-10-10--10-10-10-10-10-10-10-10--
|--10b10b10b10b10b10b10b10b-10-10-10-10-10-10-10-10--
|----------------------------------------------------
|----------------------------------------------------
|----------------------------------------------------
|----------------------------------------------------

|--12-12-12-12-12-12-12-12---15-15-15-15-15-15-15-15-\--|
|--15b15b15b15b15b15b15b15b--15b15b15b15b15b15b15b15b\--|
|-------------------------------------------------------|
|-------------------------------------------------------|
|-------------------------------------------------------|
|-------------------------------------------------------|


Last Chorus
|-----------------------------------------------------2~~--2~~--2~~--|
|-----------------------------------------------------3~~--3~~--3~~--|
|-------------------9-9-9-9-9-9-9-9--7-7-7-7-7-7-7-7--2~~--2~~--2~~--|
|--7-7-7-7-7-7-7-7--9-9-9-9-9-9-9-9--7-7-7-7-7-7-7-7--0~~--0~~--0~~--|
|--7-7-7-7-7-7-7-7--7-7-7-7-7-7-7-7--5-5-5-5-5-5-5-5-----------------|
|--5-5-5-5-5-5-5-5---------------------------------------------------|
play 4x


Outro
|-------------------------------------------------------------
|-------------------------------------------------------------
|--7-7-7-7-7-7-7-7--9-9-9-9-9-9-9-9--11-11-11-11-11-11-11-11--
|--7-7-7-7-7-7-7-7--9-9-9-9-9-9-9-9--11-11-11-11-11-11-11-11--
|--5-5-5-5-5-5-5-5--7-7-7-7-7-7-7-7--9--9--9--9--9--9--9--9---
|-------------------------------------------------------------

|----------------------------------------------|
|----------------------------------------------|
|-------------------------7-7-9-9----------9\--|
|------------------7-7-9-9---------2~~~~~--9\--|
|-----------7-7-9-9----------------2~~~~~--7\--|
|--7-7-10-10-----------------------0~~~~~------|

Went down to the cemetery looking for love :)





Comments


Popular Headstones tabs & chords
Heart Of Darkness Bass Tabs
And Tabs
Anything Tabs
Blonde Blue Tabs
Digits Tabs
Settle Tabs
Tiny Teddy Tabs
Tweeter And The Monkeyman 1 Tabs
Three Angels Ukulele
Unsound Ukulele


Song lyrics



↑ Back to top | Tablatures and chords are parodies/interpretations of the original songs. You may use it for private study, scholarship, research or language learning purposes only
© 2014 AZChords.com Contact us | Privacy policy | DMCA | Add/correct tabs | Request tabs | Top 50 tabs