» » »

Headstones, Blowtorch Tabs (ver.1)

Artists:  A B C D E F G H I J K L M N O P Q R S T U V W X Y Z # 

Blowtorch Tabs (ver.1)

Headstones Tabs
Rating:
0/5 (0 votes)
Hard to play? Try these video lessons and learn fast.
                Blowtorch- Headstones
Tuning: Standard

This is what the intro sounds like to me... second part is 2nd verse chords
e ---------------------------------------------|----------------
B -2-2-2-2-2--1-1-1-1-1--0-0-0-0-0--0-0-0-0-0--|-0---0---0---0--
G -4-4-4-4-4--3-3-3-3-3--2-2-2-2-2--1-1-1-1-1--|-4---3---2---1--
D -4-4-4-4-4--3-3-3-3-3--2-2-2-2-2--2-2-2-2-2--|-4---3---2---2--
A -2-2-2-2-2--1-1-1-1-1--0-0-0-0-0--2-2-2-2-2--|-2---1---0---2--
E ----------------------------------0-0-0-0-0--|-------------0--

After verse part:
e ---------------------------------------------------------------------
B ---------------------------------------------------------------------
G ---------------------------------------------------------------------
D ----------------------------------------------------------------5-5--
A -----------------------------5h7-7------------------------------5-5--
E -0--0-3-0--5h7-7---0--0-3-0----------0--0-3-0--5h7-7---0--0-3-0-3-3--

Chorus:
e -----------------------------------------------------
B -----------------------------------------------------
G -7-7-7-7-7-7-7-7------------------------------7/8/9--
D -7-7-7-7-7-7-7-7------------------------------7/8/9--
A -5-5-5-5-5-5-5-5------------------------------5/6/7--
E ------------------0--0-3-0--5h7-7---0--0-3-0---------

e -----------------------------------------------------
B -----------------------------------------------------
G -7-7-7-7-7-7-7-7-------------------------------------
D -7-7-7-7-7-7-7-7-------------------------------------
A -5-5-5-5-5-5-5-5-------------------------------------
E ------------------0--0-3-0--5h7-7---0--0-3-0--3-2-1--

e ---------------------------------------------------------------
B ---------------------------------------------------------------
G -7-7-7-7-7-7-7-7-----------------------------------------------
D -7-7-7-7-7-7-7-7--7~-----------5-5--7-7-7-7-7--5-5--7-7-7-7-7--
A -5-5-5-5-5-5-5-5--7~-----------5-5--7-7-7-7-7--5-5--7-7-7-7-7--
E ------------------5~-----------3-3--5-5-5-5-5--3-3--5-5-5-5-5--

Instrumental part: something like this, play X2
e ---------------------------------------------------------
B -14-15-14---14-15-14---15-14-12-10---9-10-12---9-10-12-----
G ------------------------------------------VV--------VV-----------
D -------------------------------------------------------------
A -------------------------------------------------------------
E -------------------------------------------------------------

Bridge:
e ------------------------------------------------------------
B ------------------------------------------------------------
G -12-12-12-12-12--11-11-11-11-11--10-10-10-10-10--9-9-9-9-9--
D -12-12-12-12-12--11-11-11-11-11--10-10-10-10-10--9-9-9-9-9--
A -10-10-10-10-10--9--9--9--9--9---8--8--8--8--8---7-7-7-7-7--
E ------------------------------------------------------------

Ending:
e ---------------------------------------------------------
B ---------------------------------------------------------
G -7-7-7-7-7-7-7-7--9-9-9-9-9-9-9-9--7-7-7-7-7-7-7-7--14~--
D -7-7-7-7-7-7-7-7--9-9-9-9-9-9-9-9--7-7-7-7-7-7-7-7--14~--
A -5-5-5-5-5-5-5-5--7-7-7-7-7-7-7-7--5-5-5-5-5-5-5-5--12~--
E ---------------------------------------------------------

Chords: G5  A5  D5 D#5  E5  F5  F#5  G5  A5(2)  B  Bb Asus  E
e       x   x   x   x   x   x    x   x     x    x  x   x    x
B       x   x   x   x   x   x    x   x     x    2  1   0    0
G       x   x   7   8   9   10   11  12    14   4  3   2    1
D       5   7   7   8   9   10   11  12    14   4  3   2    2
A       5   7   5   6   7   8    9   10    12   2  1   0    2
E       3   5   x   x   x   x    x   x     x    x  x   x    0
            

comments powered by Disqus
↑ Back to top | Headstones Tabs for Blowtorch. Lyrics for acoustic guitar and electric guitar. Tablatures and chords are parodies/interpretations of the original songs. You may use it for private study, scholarship, research or language learning purposes only