» » »

Headstones, And Bass tabs (ver.1)

Artists:  A B C D E F G H I J K L M N O P Q R S T U V W X Y Z # 

And Bass tabs (ver.1)

Headstones Tabs
 Rating:
4/5 (4 votes)
And lessons Tabs too difficult? Try these video lessons and learn fast
1
                Main Riff
G---------------------------------------|
D---------------------------------------|
A-8--8--8--8------------7-7-7-7-7-7-7-7-|
E------------8--8--8--8-----------------|

(End of Verse -Last bar before Chorus)
G---------------------------------------|
D---------------------------------------|
A------------8--8--8--8-5-5-5-5-5-5-5-5-|
E-8--8--8--8----------------------------|

Chorus
G--------------------------------------------------|
D--------------------------------------------------|
A-1-1-1-1---------3-3-3-5-5-5----------------------|
E---------1-1-1-1-------------5-5-5-5-5-5-5-5------|

Outro (what good would it do)     (End)
G-------------------------------|-------|
D-------------------------------|-------|
A-1-1-1-1---------3-3-3-5-5-5-5-|-1---0-|
E---------1-1-1-1---------------|---1---|
            
Submit corrections

comments powered by Disqus
↑ Back to top | Headstones Bass for And. Lyrics for acoustic guitar and electric guitar. 1 Tablatures and chords are parodies/interpretations of the original songs. You may use it for private study, scholarship, research or language learning purposes only