» » »

Absolutely Bass tabs (ver.1)

Artists:  A B C D E F G H I J K L M N O P Q R S T U V W X Y Z # 

Absolutely Bass tabs (ver.1)

Headstones
Rating:
0/5 (0 votes)

Hard to play? Try these video lessons and learn fast.
                Intro
G-----------------------------------------|
D-----------------------------------------|
A-----2--2-2----5-5-5---------------------|
E------------------------5----0-0-0-0-0-0-|

G---------------------------------------------|
D---------------------------------------------|
A----2--2-2----5-5-5----9-----7-7-7---5---7-7-|
E---------------------------------------------|

Verse
G-------------------------------------|
D-------------------------------------|
A--2-2-2-2--5-5-5-5-------------------|
E--------------------5-5-5-5--0-0-0-0-|

Chorus
G-----------------------------------------|
D-----------------------------------------|
A-----2--2-2----5-5-5---------------------|
E------------------------5----0-0-0-0-0-0-|

G---------------------------------------------|
D---------------------------------------------|
A----2--2-2----5-5-5----9-----7-7-7---5---7-7-|
E---------------------------------------------|

Bridge
G------------------------------------------------|
D------------------------------------------------|
A------------------------------------------------|
E---55555555----00000000----22222222----55555555-|
 
G------------------------------------------------|
D------------------------------------------------|
A------------------------------------------------|
E-----55555555----00000000-----2222222222222222--|
            
Hard to play? Try these video lessons and learn fast. | Correct




comments powered by Disqus
↑ Back to top | Tablatures and chords are parodies/interpretations of the original songs. You may use it for private study, scholarship, research or language learning purposes only