» » »

Above Ground Swimming Pools Bass tabs (ver.1)

Artists:  A B C D E F G H I J K L M N O P Q R S T U V W X Y Z # 

Above Ground Swimming Pools Bass tabs (ver.1)

Headstones
Rating:
0/5 (0 votes)

Hard to play? Try these video lessons and learn fast.
                         (Guitar intro)                            x6
G----------------------------------------------------|
D----------------------------------------------------|
A----------------------------------------------------|
E----------------------------------------------------|

First Verse                                        x6
G----------------------------------------------------|
D----------------------------------------------------|
A-5--------------------------------------5-----------|
E--------------5------------3------------------------|

Chorus                                           x2
G--------------------------------------------------|
D--------------------------------------------------|
A-5--5-5-5-5-5--------------5--5-5-5-5-5-5-5-5-5-5-|
E--------------3--3-3-3-3-3------------------------|

Second Verse                                       x9
G----------------------------------------------------|
D----------------------------------------------------|
A-5--------------------------------------5-----------|
E--------------5------------3------------------------|

G-------------|
D-5/12-(ring)-|
A-------------|
E-------------|

Chorus                                           x2
G--------------------------------------------------|
D--------------------------------------------------|
A-5--5-5-5-5-5--------------5--5-5-5-5-5-5-5-5-5-5-|
E--------------3--3-3-3-3-3------------------------|

Third Verse                                        x6
G----------------------------------------------------|
D----------------------------------------------------|
A-5--------------------------------------5-----------|
E--------------5------------3------------------------|


Chorus        (repeat and fade out)
G--------------------------------------------------|
D--------------------------------------------------|
A-5--5-5-5-5-5--------------5--5-5-5-5-5-5-5-5-5-5-|
E--------------3--3-3-3-3-3------------------------|


****************************************************************************
yeah there aint a lot to this song, try add fills or maybe playing more than just solid 
maybe bust out an acoustice bass and play the verses with more than holding the notes or 
could always try folling the piano part
            
Hard to play? Try these video lessons and learn fast. | Correct




comments powered by Disqus
↑ Back to top | Tablatures and chords are parodies/interpretations of the original songs. You may use it for private study, scholarship, research or language learning purposes only