» » »

H-Blockx, Try Me One More Time Bass tabs (ver.1)

Artists:  A B C D E F G H I J K L M N O P Q R S T U V W X Y Z # 

Try Me One More Time Bass tabs (ver.1)

H-Blockx Tabs
Rating:
0/5 (0 votes)
Try Me One More Time lessons Tabs too difficult? Try these video lessons and learn fast
                H-Blockx
Discover My Soul

Drop D tunning
                                                                   
Intro
G|-----------------------------------------------------------------|
D|-----------------------------------------------------------------|
A|------------8-8---------------8-8-------------8-8-------------8-8|
D|9-9-9-9-9-9------9-9-9-9-9-9------9-9-9-9-9-9-----9-9-9-9-9-9----|
                                                                     
Verse                                                              
G|-----------------------------------------------------------------|
D|-----------------------------------------------------------------|
A|9-9-9-------------------------------------9-9-9------------------|
D|-------7--7-7-7--7-10-9--10-10-10--9-8-7---------7--7-7-7--7-10-9|
                                                                   
G|---------------|                                                 
D|---------------|                                                 
A|---------------|                                                 
D|10-10-10--7-6-5|                                                   
                                                                       
Pre-Chorus                                                        
G|--------------------------------------------------|             
D|--------------------------------------------------|                
A|---2-2----2-2----2-2----2-2--2-2-2-2-2-2-2-2-2-2-2|                 
D|2-------2------2------2---------------------------|  

Chorus
G|----------------------------------------------------|
D|----------------------------------------------------|
A|-----6-5-------6-5------6-5-----6-5-----6-5------6-5|
D|2-2-------2-2-------2-2-----2-2-----2-2------2-2----|

Note: The middle part is just the same as the intro on the bass.
            
Submit corrections

comments powered by Disqus
↑ Back to top | H-Blockx Bass for Try Me One More Time. Lyrics for acoustic guitar and electric guitar. Tablatures and chords are parodies/interpretations of the original songs. You may use it for private study, scholarship, research or language learning purposes only