» » »

H-Blockx, Step Back Bass tabs (ver.1)

Artists:  A B C D E F G H I J K L M N O P Q R S T U V W X Y Z # 

Step Back Bass tabs (ver.1)

H-Blockx Tabs
 Rating:
4/5 (4 votes)
Step Back lessons Tabs too difficult? Try these video lessons and learn fast
                H-Blockx
Discover My Soul

Pre-Chorus
        H            H                    
G|-----------------------|
D|-----------------------|
A|-------------0-0-------|
D|2-2--2--5-5--------2--5|

Chorus

G|---------------------|
D|---------------------|
A|---------------------|
D|5-5---7-7---5-5---7-7|

Verse
   H       H      H        
G|----------------------|
D|----------------------|
A|----------------------|
D|2--5-5--2--5-5--2--5-5|
            
Submit corrections

comments powered by Disqus
↑ Back to top | H-Blockx Bass for Step Back. Lyrics for acoustic guitar and electric guitar. Tablatures and chords are parodies/interpretations of the original songs. You may use it for private study, scholarship, research or language learning purposes only