» » »

H-Blockx, Ring Of Fire Chords (ver.1)

Artists:  A B C D E F G H I J K L M N O P Q R S T U V W X Y Z # 

Ring Of Fire Chords (ver.1)

H-Blockx Tabs
 Rating:
4/5 (4 votes)
Ring Of Fire lessons Tabs too difficult? Try these video lessons and learn fast
                Done in 2003 by Franz Winter, Germany



I didn't figure out the 1st Guitar, because i can't hear it...
it is somehow mixed together with the bass and it's always the same
throughout the entire song.


2nd Guitar: (starts after app. 10 seconds)

E|-----------------------------|
H|-----------------------------|
G|-7--x-7--x-7-7--/9-------/7--|
D|-7--x-7--x-7-7--/9--\10--/7--|
A|-5--x-5--x-5-5--/7--\10--/5--|
E|--------------------\8-------|


E|-------------------------------|
H|-------------------------------|
G|-5--x-5--x-5-5--/7------/5-----|
D|-5--x-5--x-5-5--/7--\8--/5--5--|
A|-3--x-3--x-3-3--/5--\8--/3--5--|
E|--------------------\6------3--|



Refrain

E|----------|
H|----------|
G|-7--5-----|
D|-7--5--5--|
A|-5--3--5--|
E|-------3--|
   D  C  G

Strike the chords once as described here under:
(only in the 4th line there's an exception, you have to
use another strike pattern, figure it out yourself!)

[D]I fell into a [C]burning ring of [G]fire
I went [D]down down down
The [C]flames they went [G]higher
And it burns burns [D]burns [C]
The ring of [G]fire [C]
The ring of [G]fire [C]
The ring of [G]fire.
            
Submit corrections

comments powered by Disqus
↑ Back to top | H-Blockx Chords for Ring Of Fire. Lyrics for acoustic guitar and electric guitar. Tablatures and chords are parodies/interpretations of the original songs. You may use it for private study, scholarship, research or language learning purposes only