» » »

Pour Me A Glass Bass tabs (ver.1)

Artists:  A B C D E F G H I J K L M N O P Q R S T U V W X Y Z # 

Pour Me A Glass Bass tabs (ver.1)

H-Blockx
Rating:
0/5 (0 votes)

Tabs too difficult? Try these video lessons and learn fast.
                Pour me a Glass
T:Dave/M:Gudze

Tunning:Drop D

*:repeat

Intro

G|---------2-----------2----------2-----------2-----|
D|3-5-3--0----3-5-3--0---3-5-3--0----3-5-3--0-------|
A|-----------------------------------------------3-2|
D|--------------------------------------------------|

Chorus

G|------------------------|
D|--0---------------------|
A|----------3-2-----------|
D|0----0-0------0-0--3-5-3|

Verse
 *                    *              *
G|--------------------|--------------|-----------------------|
D|--------------------|--------------|-----------------------|
A|-------------------2|-0--3-5-3--5-3|----------------------0|
D|0-0--4-0-4-0-4--0---|--------------|7-0-6-0-6-0-7-0-6-7-0--|
            
Tabs too difficult? Try these video lessons and learn fast.




comments powered by Disqus
↑ Back to top | Tablatures and chords are parodies/interpretations of the original songs. You may use it for private study, scholarship, research or language learning purposes only