» » »

H-Blockx, Million Miles Bass tabs (ver.1)

Artists:  A B C D E F G H I J K L M N O P Q R S T U V W X Y Z # 

Million Miles Bass tabs (ver.1)

H-Blockx Tabs
 Rating:
4/5 (4 votes)
Million Miles lessons Tabs too difficult? Try these video lessons and learn fast
                Tuning: Normal (E,A,D,G)

lr = Let Ring
x = Muted

Intro
G|------R------|
D|------E------|
A|------S------|
E|------T------|

Verse
G|----------------|-------------|----------------|------------|-----------|
D|----------------|-------------|----------------|------------|-----------|  x2
A|44--44-x-4-4-4-4|-------------|44--44-x-4-4-4-4|222222222222|-----------|
E|----------------|5554555455455|----------------|------------|55554lr----|

Soft Part
G|---------------|--------------|----------------|----------------|
D|---------------|--------------|----------------|----------------|
A|---------------|--------------|----------------|----------------|
E|5lr------------|7lr-----------|5lr-------------|7lr-----8lr-----|

Chorus
G|---------------|---------------|---------------|-----------------|
D|---------------|---------------|---------------|-----------------|
A|444444-4444-444|---------------|444444-4444-444|22222-222--------|
E|---------------|555555-5555-555|---------------|----------555-444|

Verse
G|----------------|-------------|----------------|------------|-----------|
D|----------------|-------------|----------------|------------|-----------|  x2
A|44--44-x-4-4-4-4|-------------|44--44-x-4-4-4-4|222222222222|-----------|
E|----------------|5554555455455|----------------|------------|55554lr----|

Soft Part
G|---------------|--------------|----------------|----------------|
D|---------------|--------------|----------------|----------------|
A|---------------|--------------|----------------|----------------|
E|5lr------------|7lr-----------|5lr-------------|7lr-----8lr-----|

Chorus
G|---------------|---------------|---------------|---------------|
D|---------------|---------------|---------------|---------------|
A|444444-4444-444|---------------|444444-4444-444|22222-222------|
E|---------------|555555-5555-555|---------------|----------55-44|

Solo
G|----------------|-------------|----------------|------------|-----------|
D|----------------|-------------|----------------|------------|-----------|  x2
A|44--44-x-4-4-4-4|-------------|44--44-x-4-4-4-4|222222222222|-----------|
E|----------------|5554555455455|----------------|------------|55554lr----|

Soft Part
G|---------------|--------------|----------------|----------------|
D|---------------|--------------|----------------|----------------|
A|---------------|--------------|----------------|----------------|
E|5lr------------|7lr-----------|5lr-------------|7lr-----8lr-----|

Soft Verse
G|---------------|--------------|----------------|----------------|
D|---------------|--------------|----------------|----------------|
A|4lr------------|--------------|4lr-------------|2lr-------------|
E|---------------|5lr-----------|----------------|-----------5-4--|

G|---------------|--------------|----------------|----------------|
D|---------------|--------------|----------------|----------------|
A|4lr------------|--------------|4lr-------------|2lr--------5lr--|
E|---------------|5lr-----------|----------------|----------------|

Chorus
G|---------------|---------------|---------------|---------------|
D|---------------|---------------|---------------|---------------|  x4 
A|444444-4444-444|---------------|444444-4444-444|22222-222------|
E|---------------|555555-5555-555|---------------|----------55-44|

G|---------------|---------------|---------------|---------------|
D|---------------|---------------|---------------|---------------|  
A|444444-4444-444|---------------|444444-4444-444|22222-222--7---|
E|---------------|555555-5555-555|---------------|----------5-5lr|

This easy song, expect hte rhytms may sound a bit hard but yol'll get them.
If you think this tab isn't right, YOU might be right 'cause this is my first tab i've 
ever done!

-TerminatorX-
            
Submit corrections

comments powered by Disqus
↑ Back to top | H-Blockx Bass for Million Miles. Lyrics for acoustic guitar and electric guitar. Tablatures and chords are parodies/interpretations of the original songs. You may use it for private study, scholarship, research or language learning purposes only